Shitfish

Small Opinion White Noticeboard

Shitfish

tabs

save to print version add songbook text version e-mail correct tuner
chordsukulelecavacokeyboardtabbassdrumsharmonicaflute Guitar Pro
close

there isn't a video lesson for this song

chords

Small Opinion White Noticeboard

	  		Music by Shitfish 
Lyrics by Paul Zula 
 
Bass transcription by Mookie Blaylock 
Drop D tuning guitar and bass 
 
Intro 
12th fret harmonics on both D strings at will 
Slide down from 12th fret A string lead into song 
 
Chorus 
 
G -------------------------------------------- 
D -------------------------------------------- 
A ---5-5-5-5--5-5-5-5--8-7--5-5-5-5--3-3------ 
D -----------------------------------------1-- 
 
Verse 
 
G ------------------------------------------------ 
D ------------------------------------------------ 
A ---5-5-5-5--5-5-5-5--5-5--5-5-5-5--5-5-5-5--3--- 
D ----------------------------------------------3- 
 
Bridge 
 
G ------------------------------------ 
D ------------------------------------ 
A ---5-5-5-5--5-5-5-5--8-7-5---------- 
D -----------------------------5------ 
 
End solo and end song (fourth time through) 
 
G -------------------------------------------------- 
D -------------------------------------------------- 
A ---5-5-5-5--5-5-5-5--8-7--5-5-5-5---5-3-0--3-0---- 
D -----------------------------------------------3-- 
 
Intro 
Chorus (no words) 
Verse 
Chorus 
Verse 
Chorus 
Bridge 
Solo (ends with above riff) 
Chorus 
Chorus (no words) 3rd and 4th riffs as above 
 
Guitar Tab:    Small Opinion White Noticeboard 
               ===== ======= ===== =========== 
 
timing = 4/4 
 _____________ 
|Key:         | 
|p = pull off | 
|_____________| 
 
chorus:  
 
e ----------------------------|----------------------------| 
B ----------------------------|----------------------------| 
G 7---7-7---7---7-7---10-9----|7---7------5---5------------| 
d 7---7-7---7---7-7---10-9----|7---7------5---5----3-3-3---| 
A 5---5-5---5---5-5---8--7----|5---5------3---3----3-3-3---| 
D 0---0-0---0---0-0---0--0----|0---0---------------3-3-3---| 
 
verse: (harmonics at shown fret)                  (N.H.) 
d ----------------------------|--------------------3-3-3---| 
A --12-------------5----------|--12---------5------3-3-3---| 
D 12-------------5------------|12---------5--------3-3-3---| 
 
 
bridge riff: 
 
e ----------------------------|----------------------------| 
B ----------------------------|----------------------------| 
G 7---7-7---7---7-7---10-9----|----------------------------| 
d 7---7-7---7---7-7---10-9----|5---------------------------| 
A 5---5-5---5---5-5---8--7----|5---------------------------| 
D 0---0-0---0---0-0---0--0----|5---------------------------| 
 
solo:  
 
e ----------------------------|----------------------------| 
B 13---------------13p12/10-8-|7-8--10------------------8p7| 
G ----------------------------|----------------------------| 
d ----------------------------|----------------------------| 
A ----------------------------|----------------------------| 
D ----------------------------|----------------------------| 
 
e -----8---------10----8p7----|----------------------------| 
B 8p7------8p7-------------8--|8p7-------------------------| 
G ----------------------------|-----7----------------------| 
d ----------------------------|----------------------------| 
A ----------------------------|----------------------------| 
D ----------------------------|----------------------------| 
 
e 13-----------------13p12-10-|10--------/13--15-----------| 
B ----------------------------|----------------------------| 
G ----------------------------|----------------------------| 
d ----------------------------|----------------------------| 
A ----------------------------|----------------------------| 
D ----------------------------|----------------------------| 
 
  (triplets)~~~~~~~~~~~~~~~~~~~~~~~~~~~~~~~~~~~~~~~~~~~~~                 
e --5-5---5-5---5-5-3-5-5---|5---------------------------| 
B 3-----3-----3-------------|----------------------------| 
G --------------------------|------------7-5-5-5-5-------| 
d --------------------------|------------7-5-5-5-5-5-----| 
A --------------------------|------------5-3-0-3-0-5-----| 
D --------------------------|------------0---------5-----| 
 
 
Song: 
 
intro (adlib harmonics 12/5 fret; D/A strings) 
chorus (guitar only) x 2 
verse x 4 
chorus x 4 
verse x 4 
bridge x 4 
chorus x 4 
solo 
chorus x 2 
chorus x 2 (both times with ending chords same as last bar of solo)   
 
(c) Shitfish, 1997 

		  

Full key step upFull key step up
Half key step upHalf key step up
Half key step downHalf key step down
Full key step downFull key step down
hide glossary

See also:

tabs Spiderbait - Black Betty tabs Pete Murray - Tonic tabs Powderfinger - These Days tabs John Butler Trio - Life Ain't What It Seems tabs Xavier Rudd - Shelter tabs John Butler Trio - Peaches & Cream
e-chords

Other versions:

tabs Shitfish - Small Opinion White Noticeboard
auto scroll beats size up size down change color hide chords drawings
tab show chords e-chords YouTube Clip e-chords hide all tabs e-chords go to top tab

share