Shinedown

Devil

Shinedown

tabs

by  LUCICAMARGO

save to print version add songbook text version e-mail correct tuner
chordsukulelecavacokeyboardtabbassdrumsharmonicaflute Guitar Pro
close

there isn't a video lesson for this song

chords

Devil

Key:  D More
Devil Key AA
Devil Key A#A#
Devil Key BB
Devil Key CC(one step down)
Devil Key C#C#(half step down)
Devil Key DD(original key)
Devil Key D#D#(half step up)
Devil Key EE(one step up)
Devil Key FF
Devil Key F#F#
Devil Key GG
Devil Key G#G#
	  		
Riff 1 
E|--------------------------------------| 
B|--------------------------------------| 
G|-------12b-10b-7b\-------15-------18\-| 
D|-------x---x---x---------x--------x---| 
A|-------10b-8b--5b\-0-0-0-13-0-0-0-16\-| 
D|-0-0-0-------------0-0-0----0-0-0-----| 
                     * * *    * * * 

Play Riff 1 x10   "Pick it up, pick up the phone..." 
*rest* 

Riff 2   "'Cause it's about to get heavy..." 
E|-------------------------------------------------------------| 
B|-------------------------------------------------------------| 
G|-------------------------------------------------------------| 
D|-0-0--0-0-0--0-0-0--0-0-0--0-8-8--8-8-8---8-8-8--8-8-8-8-8-8-| 
A|-0-0--0-0-0--0-0-0--0-0-0--0-8-8--8-8-8---8-8-8--8-8-8-8-8-8-| 
D|-0-0--0-0-0--0-0-0--0-0-0--0-8-8--8-8-8---8-8-8--8-8-8-8-8-8-| 

E|---------------------------------------------------------------------| 
B|---------------------------------------------------------------------| 
G|---------------------------------------------------------------------| 
D|-5-5--5-5-5--5-5-5--5-5-5--5-0-0--0-0-0---0-0-0--0-12-10-10-10-10-10-| 
A|-5-5--5-5-5--5-5-5--5-5-5--5-0-0--0-0-0---0-0-0--0-12-10-10-10-10-10-| 
D|-5-5--5-5-5--5-5-5--5-5-5--5-0-0--0-0-0---0-0-0--0-12-10-10-10-10-10-| 

Riff 2 note: The studio version has two guitars doubled here, one playing the power chords above and 
             the other playing just the root notes on the low D string. 

Play Riff 1 x1 

Riff 3 
E|-------------------------------------------| 
B|-------------------------------------------| 
G|-------12b-10b-7b\-------------------------| 
D|-------x---x---x-------------------5-7-3-0-| 
A|-------10b-8b--5b\-13-12-10--------5-7-3-0-| 
D|-0-0-0----------------------10-8-7-5-7-3-0-| 
                                     * * * 

Riff 3 note: The descending run starting at the 13th fret is played with a whammy pedal set with the 
             low octave harmony. 

Play Riff 1 x3   "The silence, the silence, the blinding ultra violence..." 
Play Riff 3 x1   "...vicious and obscene..." 
*rest* 
Play Riff 2 x1   "'Cause it's about to get heavy..." 

Riff 4 (w/ heavy reverb and slight delay) 
E|-----------------------------------------| 
B|-----------------------------------------| 
G|-----------------------------------------| 
D|-----------------------------------------| 
A|-----------------------------------------| 
D|-0~-------0-8~--------8\-5~---------5-0~-| 

Riff 5 
E|-----------------------------------------------------------------------------------------| 
B|-----------------------------------------------------------------------------------------| 
G|-----------------------------------------------------------------------------------------| 
D|-0--0--0-12-12-12-10-10-10-0--0--0-12-12-12-10-10-10-8-8\--8-8-8-7-7-7-8-8\--8-8-8-7-7-7-| 
A|-0--0--0-12-12-12-10-10-10-0--0--0-12-12-12-10-10-10-8-8\--8-8-8-7-7-7-8-8\--8-8-8-7-7-7-| 
D|-0--0--0-12-12-12-10-10-10-0--0--0-12-12-12-10-10-10-8-8\--8-8-8-7-7-7-8-8\--8-8-8-7-7-7-| 

E|-----------------------------------------------------------------------------------------| 
B|-----------------------------------------------------------------------------------------| 
G|-----------------------------------------------------------------------------------------| 
D|-5-5--5-5-5-5-0-3-5-5--5-5-5-0--12-12-12-0--12-12-12-0--12-12-12-10-10-10-8-8-8-10-10-10-| 
A|-5-5--5-5-5-5-0-3-5-5--5-5-5-0--12-12-12-0--12-12-12-0--12-12-12-10-10-10-8-8-8-10-10-10-| 
D|-5-5--5-5-5-5-0-3-5-5--5-5-5-0--12-12-12-0--12-12-12-0--12-12-12-10-10-10-8-8-8-10-10-10-| 

Riff 5 note: Same as Riff 2 note. 

Play Riff 2 x2   "'Cause it's about to get heavy..." 

Enjoy!! 
		  

Full key step upFull key step up
Half key step upHalf key step up
Half key step downHalf key step down
Full key step downFull key step down
hide glossary

See also:

tabs Bon Jovi - It's My Life tabs Kiss - Forever tabs Aerosmith - Dream On tabs Foo Fighters - Everlong (acústico) tabs The Doors - People Are Strange tabs The Offspring - All I Want
e-chords

Other versions:

tabs Shinedown - Devil tabs Nightwish - Devil & The Deep Dark Ocean tabs Roxette - Devil And Daughter tabs Nightwish - Devil And The Deep Dark Ocean tabs Mark Knopfler - Devil baby tabs Monster Truck - Devil Dont Care
auto scroll beats size up size down change color hide chords drawings
tab show chords e-chords YouTube Clip e-chords hide all tabs e-chords go to top tab

share