Sean Watkins

Run Away Girl

Sean Watkins

tabs

by  PAULANTUNES

save to print version add songbook text version e-mail correct tuner
chordsukulelecavacokeyboardtabbassdrumsharmonicaflute Guitar Pro
close

there isn't a video lesson for this song

chords

Run Away Girl

	  		
Intro (REPEAT 2X'S) 
E|----------------------0--------0---------------------------2---------| 
B|---------------------------------------2-------2---------3---------3-| 
G|--------------------2-------2-------2--------2---------2---------2---| 
D|-----------3------0----------------------------------0---------0-----| 
A|-------2-0---5/7/-------2/4------2-------2---------------------------| 
E|-2-2/4---------------------------------------------------------------| 


Verse (JUST STRUM THE CHORDS, 4x's) 
E|-2--0--2--0-----2--|| 
B|-2--2--3--2--0--3--|| 
G|-2--2--2--2--4--2--|| 
D|-4--2--0--2--4--0--|| 
A|-4--0--0--0--2--0--|| 
E|-2-----------------|| 


Chorus 
E|--0--2--2---------|| 
B|--2--3--2--3------||  (repeat intro 1x) 
G|--2--2--2--2------|| 
D|--2--0--4--0------|| 
A|--0-----4---------|| 
E|--------2---------|| 

(repeat verse, and Chorus) 

Bridge (2:12 - 2:50) 
1ST part 
E|--0--2--2--0-|| 
B|--0--2--3--2-|| 
G|--1--2--2--2-|| (PLAY 4x'S) 
D|--2--4--0--2-|| 
A|--2--4-----0-|| 
E|--0--2-------|| 


then play this during the Bridge: 
2nd part (2:50 - 2:56) 

E|--2--0--2--0--0------|| 
B|--3--2--3--2--0------|| 
G|--2--2--2--2--1------|| 
D|--0--2--0--2--2------|| 
A|--0--0--0--0--2------|| 
E|--------------0------|| 

outro of the Bridge: 
E|------0---------0-----------0-------0---------0------0---|---|| 
B|---------------------------------------------------------|---|| 
G|---2----2----2-----2-----2----2---2---2----2---2---2---2-|-1-|| 
D|-0--------0----------------------------------------------|-2-|| 
A|----------------------4---------4-------2-------2--------|---|| 
E|---------------------------------------------------------|---|| 

(repeat Chorus 3x's) 

Outro 1x 
E|-----------------------0------0------------------0/2---| 
B|--------------------------------------2------2---3-----| 
G|---------------------2------2-------2------2-----2-----| 
D|-----------3------0------------------------------0-----| 
A|-------2-0---5/7/-------2/4------2------2--------------| 
E|-2-2/4-------------------------------------------------| 

************************************ 

| /  Slide up 

************************************ 
		  

See also:

tabs Crosby, Stills, Nash & Young - Suite Judy Blue Eyes tabs John Denver - For You tabs Kansas - Carry On My Wayward Son tabs John Denver - Annies Song tabs Scott Joplin - The Entertainer tabs John Denver - Take Me Home, Country Roads
e-chords

Other versions:

tabs Sean Watkins - Run Away Girl
auto scroll beats size up size down change color hide chords drawings
tab show chords e-chords YouTube Clip e-chords hide all tabs e-chords go to top tab

share