SantaCeia

Nada Mais

SantaCeia

tabs nolevel nolevel

by  DEIVCAVALCANTI

save to print version add songbook text version e-mail correct tuner
chordsukulelecavacokeyboardtabbassdrumsharmonicaflute Guitar Pro
close

there isn't a video lesson for this song

chords

Nada Mais

	  		D  F  Am  G  D  Am  C  G 

E|----------------------------------------| 
B|----------------------------------------| 
G|---------------5----5/9-/5-5------------| 
D|------------/7---7----------------------| 
A|----------------------------------------| 
E|----------------------------------------| 

E|----------------------------------------| 
B|----------------------------------------| 
G|---------------5----5/9-/4-4------------| 
D|------------7---7-----------------------| 
A|----------------------------------------| 
E|----------------------------------------| 

E|----------------------------------------| 
B|----------------------------------------| 
G|---------------5----5/9-/5-5------------| 
D|-----0-------7---7----------------------| 
A|----------------------------------------| 
E|----------------------------------------| 

E|----------------------------------------| 
B|----------------------------------------| 
G|---------------5----5/9-/4-4----4/7-----| 
D|------------7---7-----------------------| 
A|----------------------------------------| 
E|----------------------------------------| 

E|----------------------------------------| 
B|----------------------------------------| 
G|---------------5----5/9-/5-5------------| 
D|-------------7---7----------------------| 
A|----------------------------------------| 
E|----------------------------------------| 

E|----------------------------------------| 
B|--------------------------------8-6-----| 
G|--------------5-----5/9-/5-5--------9---| 
D|------------7---7---------------------9-| 
A|----------------------------------------| 
E|----------------------------------------| 

           Dm                Am 
Não vou buscar, o que não me trás 
         C                     G 
Perto de ti, pra onde eu quero ir 
               F              Am 
Quero te encontrar todas as manhãs 
               C                G 
E te ouvir me chamar de meu amigo 
         F 
Meu coração te deseja 

Mais minha carne não 
          Am 
Em tão me ajude morrer pra mim 
G                            F 
Pra que eu possa morar do seu lado 
                          Am 
E nunca mais sair, do seu lado 
     G 
Eternamente 
       D       Am           C     G 
E eu te quero Jesus, eu te quero Jesus 
           D                Am 
Eu deixo tudo aqui, pra estar ai 
           C 
Pois só o teu amor, que me faz 
G 
Sentir vivo 

Ooooh 

Solo  D  F  Am  G 

           Dm                Am 
Não vou buscar, o que não me trás 
         C                     G 
Perto de ti, pra onde eu quero ir 
               Dm              Am 
Quero te encontrar todas as manhãs 
               C                G 
E te ouvir me chamar de meu amigo 
         Dm 
Meu coração te deseja 
        C 
Mais minha carne não 
          C 
Em tão me ajude morrer pra mim 
G                            Dm 
Pra que eu possa morar do seu lado 
     Am                    C 
E nunca mais sair, do seu lado 
     G 
Eternamente 

       D       Am           C     G 
E eu te quero Jesus, eu te quero Jesus 
           D                Am 
Eu deixo tudo aqui, pra estar ai 
           C 
Pois só o teu amor, que me faz 
G 
Sentir vivo 

 F      Am    C     G 
Ooooh ooooh ooooh ooooh 
 D      Am    C     G 
Ooooh ooooh ooooh ooooh 

       D           Am 
E nada mais, me satisfaz 
       C            G 
E nada mais, me satisfaz 
       D           Am 
E nada mais, me satisfaz 
       C            G 
Só o teu amor, só o teu amor 

 F      Am    C     G 
Ooooh ooooh ooooh ooooh 
 D      Am    C     G 
Ooooh ooooh ooooh ooooh 
       D           Am 
E nada mais, me satisfaz 
       C            G 
E nada mais, me satisfaz 
       D           Am 
E nada mais, me satisfaz 
       C            G 
Só o teu amor, só o teu amor 
		  

Full key step upFull key step up
Half key step upHalf key step up
Half key step downHalf key step down
Full key step downFull key step down
hide glossary

See also:

tabs Oficina G3 - o tempo (ver. 2) tabs Voz da Verdade - Projeto no derserto tabs Toque no Altar - Deus De Promessa tabs Lázaro - Meu Mestre tabs Oficina G3 - Minha Luta tabs Lázaro - Deus Vai Fazer(completa E Correta)
e-chords

Other versions:

tabs Hateen - nada mais tabs SantaCeia - Nada Mais tabs Hateen - Nada mais (intro)
auto scroll beats size up size down change color hide chords drawings
tab show chords e-chords YouTube Clip e-chords hide all tabs e-chords go to top tab

share with facebook