Rihanna

home > Rihanna

Don't Stop The Music Tab

Rihanna

Difficulty: IntermediateIntermediate

by dapholiveira

tuner correct add songbook print version text version save to e-mail
chordsukulelecavacokeyboardtabbassdrumsharmonicsflute Guitar Pro
chords

Don't Stop The Music

  		Introdução 
e|---------------------------------------------------------------------------| 
B|-10p9----------------------------------------------------------------------| 
G|------11p9-11-11-----------------------------------------------------------| 
D|---------------------------------------------------------------------------| 
A|---------------------------------------------------------------------------| 
E|---------------------------------------------------------------------------| 

 Versos: 
e|---------------------------------------------------------------------------| 
B|---------------------------------------------------------------------------| 
G|-6h7-7~---6-7-7-7-9-7-6-6-6h7-7~--6-7-7-7-9-7-6-6h7p6----------------------| 
D|---------------------------------------------------------------------------| 
A|---------------------------------------------------------------------------| 
E|---------------------------------------------------------------------------| 

e|---------------------------------------------------------------------------| 
B|---------------------------------------------------------------------------| 
G|-----6h7-7-7-9-7-6-6-6h7p6-----6-6h7p6~------------------------------------| 
D|-7-9-----------------------7-9---------------------------------------------| 
A|---------------------------------------------------------------------------| 
E|---------------------------------------------------------------------------| 

 Pre Chorus: 
e|---------------------------------------------------------------------------| 
B|-----------7-7-----------7-7-----------------------7-7---------------------| 
G|-6h7-7-7-7-----6h7-7-7-7-----6h7-7-7-7-7-7-9-7-6-6-------------------------| 
D|---------------------------------------------------------------------------| 
A|---------------------------------------------------------------------------| 
E|---------------------------------------------------------------------------| 

 Chorus: 
e|---------------------------------------------------------------------------| 
B|-7---7-9---9-10---10p9-----7---7-9---9-10---10p9----------10p9-------------| 
G|---6-----6------6-----11-9---6-----6------6-----11p9-11-11----11p9-11-11---| 
D|---------------------------------------------------------------------------| 
A|---------------------------------------------------------------------------| 
E|---------------------------------------------------------------------------| 

e|---------------------------------------------------------------------------| 
B|-10p9-----------10p9------10p9------10p9-----------------------------------| 
G|-----11p9-11-11------11-9------11-9------11-9-11-11------------------------| 
D|---------------------------------------------------------------------------| 
A|---------------------------------------------------------------------------| 
E|---------------------------------------------------------------------------| 

 p  pull-off 
 ~  vibrato 
 /  slide up 
 \  slide down 
 h  hammer-on 
	  

Search Paypal
auto scroll beats size up size down change color hide chords drawings
tab show chords e-chords YouTube Clip e-chords hide all tabs e-chords go to top tab