Ricky Furlani

Gnk

Ricky Furlani

tabs

by  BOMBAXXX

save to print version add songbook text version e-mail correct tuner
chordsukulelecavacokeyboardtabbassdrumsharmonicaflute Guitar Pro
close

there isn't a video lesson for this song

chords

Gnk

	  		Parte 1: 

 
E|---3h7----------------------------------------------| 
B|-5--------5-----------------------------------------| 
G|--------4-------------------------------------------| 
D|----------------5-----------------------------------| 
A|--------------7-------------------------------------| 
E|----------------------------------------------------| 
 

 
E|----------------------------------------------------| 
B|---------------3------------------------------------| 
G|---0-2-2/4--4----2/4--------------------------------| 
D|-2--------------------------------------------------| 
A|----------------------------------------------------| 
E|----------------------------------------------------| 
 

 
E|---3h7----------------------------------------------| 
B|-5--------5-----------------------------------------| 
G|--------4-------------------------------------------| 
D|----------------5-----------------------------------| 
A|--------------7-------------------------------------| 
E|----------------------------------------------------| 
 

 
E|----------------------------------------------------| 
B|----------------------------------------------------| 
G|---0-2-2/4--2b4r2b4r4\2p0-2/4-----------------------| 
D|-2-----------------------------\2-------------------| 
A|----------------------------------------------------| 
E|----------------------------------------------------| 
 

 
E|---3h7----------------------------------------------| 
B|-5--------5-----------------------------------------| 
G|--------4-------------------------------------------| 
D|----------------5-----------------------------------| 
A|--------------7-------------------------------------| 
E|----------------------------------------------------| 
 

 
E|----------------------------------------------------| 
B|--------------3-------------------------------------| 
G|---0-2-2/4--4---2/4---------------------------------| 
D|-2--------------------------------------------------| 
A|----------------------------------------------------| 
E|----------------------------------------------------| 
 

 
E|---3h7----------------------------------------------| 
B|-5--------5-----------------------------------------| 
G|--------4-------------------------------------------| 
D|----------------5-----------------------------------| 
A|--------------7-------------------------------------| 
E|----------------------------------------------------| 
 

 
E|----------------------------------------------------| 
B|----------------------------------------------------| 
G|----------------------------------------------------| 
D|----------------------------------------------------| 
A|----5-5h7-7-5-5h7-----------------------------------| 
E|-/7-------------------------------------------------| 
 



Parte 2: 

 
E|----------------------------------------------------| 
B|-0----0--0-0----------------------------------------| 
G|-2/4--4--4-4----4b5r4b5~r4\2p0----------------------| 
D|----------------------------------------------------| 
A|----------------------------------------------------| 
E|----------------------------------------------------| 
 

 
E|----------------------------------------------------| 
B|-0----0--0-0----------------------------------------| 
G|-2/4--4--4-4----4b5r4b5~r4\2p0----------------------| 
D|----------------------------------------------------| 
A|----------------------------------------------------| 
E|----------------------------------------------------| 
 

 
E|------------------------------------------0---------| 
B|-0----------------------------------------0---------| 
G|-2/4--2\0-------------------------------------------| 
D|-----------0-4b5r4b5r4\2p0-2/4-\2p0-2---------------| 
A|----------------------------------------------------| 
E|---------------------------------------0------------| 
 

 
E|-0-------0----0-------------------------------------| 
B|-10h12---12---12-----12b13r12b13r12p10\8------------| 
G|----------------------------------------------------| 
D|----------------------------------------------------| 
A|----------------------------------------------------| 
E|----------------------------------------------------| 
 

 
E|---------13b15~-------------------------------------| 
B|-10/12----------------------------------------------| 
G|----------------------------------------------------| 
D|----------------------------------------------------| 
A|----------------------------------------------------| 
E|----------------------------------------------------| 
 

 
E|----------------------------------------------------| 
B|----------------------------------------------------| 
G|----12-14b16--12h14~p12-----------------------------| 
D|-14---------------------14p12-----------------------| 
A|------------------------------\12-10-10/12-10h12p10-| 
E|----------------------------------------------------| 
 

 
E|----------------------------------------------------| 
B|----------------------------------------------------| 
G|----------12\11-------11-/11------------------------| 
D|----12-14-------12-----------12-12-14---------------| 
A|14----------------14-----------------12-12-14-10-10| 
E|----------------------------------------------------| 
 


Parte 3: 

 
E|----15h19-------------------------------------------| 
B|-17-----------17------------------------------------| 
G|-----------16---------12~---------------------------| 
D|------------------/14-------------------------------| 
A|----------------------------------------------------| 
E|----------------------------------------------------| 
 

 
E|----------------------------------------------------| 
B|----------------------15----------------------------| 
G|-----12-14-14/16--16-----14h16~~--------------------| 
D|-/14------------------------------------------------| 
A|----------------------------------------------------| 
E|----------------------------------------------------| 
 

 
E|----15h19-------------------------------------------| 
B|-17-----------17------------------------------------| 
G|-----------16---------12----------------------------| 
D|------------------/14-------------------------------| 
A|----------------------------------------------------| 
E|----------------------------------------------------| 
 

 
E|----------------------------------------------------| 
B|-13b15r13p12p10-12b13r12p10-11b13-------------------| 
G|----------------------------------------------------| 
D|----------------------------------------------------| 
A|----------------------------------------------------| 
E|----------------------------------------------------| 
 

 
E|----15h19-------------------------------------------| 
B|-17-----------17------------------------------------| 
G|-----------16---------12~---------------------------| 
D|------------------/14-------------------------------| 
A|----------------------------------------------------| 
E|----------------------------------------------------| 
 

 
E|----------------------------------------------------| 
B|---------------------15-----------------------------| 
G|----12-14-14/16--16------14h16~---------------------| 
D|-14-------------------------------------------------| 
A|----------------------------------------------------| 
E|----------------------------------------------------| 
 

 
E|----------------------------------------------------| 
B|----------------------------------------------------| 
G|----12-14-14b16~--b16r-b16r-b16r...-----------------| 
D|-14-------------------------------------------------| 
A|----------------------------------------------------| 
E|----------------------------------------------------| 
 

 
E|----------------------------------------------------| 
B|----------------------------------------------------| 
G|-12h14p12-------------------------------------------| 
D|----------14p12-------------------------------------| 
A|----------------\12p10-12/14-10b----------10--------| 
E|---------------------------------12p10h12----12-----| 
 

(variação) 
 
E|----------------------------------------------------| 
B|----------------------------------------------------| 
G|-12h14p12-------------------------------------------| 
D|----------14p12-------------------------------------| 
A|----------------\12p10-12/14-10h12p10----------10---| 
E|--------------------------------------12-10-12----12| 
 

 
E|----------------------------------------------------| 
B|----------------------------------------------------| 
G|----------------------------------------------------| 
D|----------------------------12-13-14----------12-13-| 
A|----------10-11-12-12-13-14----------12-13-14-------| 
E|-10-11-12-------------------------------------------| 
 

 
E|----------------------------------------------------| 
B|----------------------------------------------------| 
G|-------------12-13-14-14b16~------------------------| 
D|-14-12-13-14----------------------------------------| 
A|----------------------------------------------------| 
E|----------------------------------------------------| 
 


Parte 4: 

 
E|-17b19~---------------------------------------------| 
B|----------------------------------------------------| 
G|----------------------------------------------------| 
D|----------------------------------------------------| 
A|----------------------------------------------------| 
E|----------------------------------------------------| 
 

 
E|-17b19~---------------------------------------------| 
B|---------15b17r15-12-------------------15-----------| 
G|---------------------14-12-14p12-14/16----14h16~----| 
D|----------------------------------------------------| 
A|----------------------------------------------------| 
E|----------------------------------------------------| 
 

 
E|-------12----15b17--15b17r15/17b19--15-----15-------| 
B|-15b17----12---------------------------17b----17b20r| 
G|----------------------------------------------------| 
D|----------------------------------------------------| 
A|----------------------------------------------------| 
E|----------------------------------------------------| 
 

 
E|----------------------------------------------------| 
B|----------------------------------------------------| 
G|-12b------------------------------------------------| 
D|------14p12-----------------------------------------| 
A|------------14\12p10-12-13\12p10-12p10-------10-----| 
E|---------------------------------------12-10----12~-| 
 


Parte 5: 

 
E|----------------------------------------------------| 
B|-12p0---8p0----10p0---------------------------------| 
G|------9-----12--------------------------------------|  (4x) 
D|----------------------------------------------------| 
A|----------------------------------------------------| 
E|----------------------------------------------------| 
 

 
E|----------------------------------------------------| 
B|-12p0------8-10p0-----------------------------------| 
G|------9-10------------------------------------------|  (4x) 
D|----------------------------------------------------| 
A|----------------------------------------------------| 
E|----------------------------------------------------| 
 

 
E|----------------------------------------------------| 
B|-12p0---8p0----10p0---------------------------------| 
G|------9-----12--------------------------------------|  (4x) 
D|----------------------------------------------------| 
A|----------------------------------------------------| 
E|----------------------------------------------------| 
 

 
E|-12p0----10p0----0----------------------------------| 
B|------12------12---12-10h12p10p0----10p0h10h12------| 
G|---------------------------------12-----------------| 
D|----------------------------------------------------| 
A|----------------------------------------------------| 
E|----------------------------------------------------| 
 

 
E|----------------------------------------------------| 
B|-/15b17~~-------------------------------------------| 
G|----------------------------------------------------| 
D|----------------------------------------------------| 
A|----------------------------------------------------| 
E|----------------------------------------------------| 
 

 
E|----------------------------------------------------| 
B|-12p0---8p0----10p0---------------------------------| 
G|------9-----12--------------------------------------|  (4x) 
D|----------------------------------------------------| 
A|----------------------------------------------------| 
E|----------------------------------------------------| 
 

 
E|----------------------------------------------------| 
B|-12p0------8-10p0-----------------------------------| 
G|------9-10------------------------------------------|  (4x) 
D|----------------------------------------------------| 
A|----------------------------------------------------| 
E|----------------------------------------------------| 
 

 
E|----------------------------------------------------| 
B|-12b------------------------------------------------| 
G|-12b------------------------------------------------| 
D|------14-14-12--------------------------------------| 
A|---------------\12-10-12/14-10~---------------------| 
E|----------------------------------------------------| 
 

 
E|----------------------------------------------------| 
B|-12-12b---------------------------------------------| 
G|-12-12b------------12-------------------------------| 
D|---------14-12-14-----14----------------------------| 
A|----------------------------------------------------| 
E|----------------------------------------------------| 
		  

See also:

tabs Deep Purple - Ive Got Your Number tabs Deep Purple - Fireball tabs Albert Hammond Jr - Gfc tabs Deep Purple - Fireball (ver. 2) tabs Deep Purple - Never A Word tabs Ira! - Eu quero sempre mais (Solo)
e-chords

Other versions:

tabs Ricky Furlani - Gnk
auto scroll beats size up size down change color hide chords drawings
tab show chords e-chords YouTube Clip e-chords hide all tabs e-chords go to top tab

share