Renato Fechine

Bebe Neg„o - solos

Renato Fechine

tabs Beginner beginner

by  CDF DA GUITARRA

save to print version add songbook text version e-mail correct tuner
chordsukulelecavacokeyboardtabbassdrumsharmonicaflute Guitar Pro
close

there isn't a video lesson for this song

chords

Bebe Neg„o - solos

	  		Tom: A    
 
Intro: Bm A 
   A   Bm 
e|-5---2----| 
b|-5---3----| 
G|-6---4----| 
D|-7--------| 
A|----------| 
E|----------| 
 
Este solo vai pro gerente do meu banco! 
  
Solo: (Bm A) 
 
e|-12^-12^--10/9/7-10-----10-12-9-----------9/10/9--------------------------------------12/19-| 
b|--------------------/12---------10-10-10\--------10---------------10-10/12------------------| 
G|---------------------------------------------------9----------10------------11-11-11/-------| 
D|-----------------------------------------------------11----11-------------------------------| 
A|--------------------------------------------------------12----------------------------------| 
E|--------------------------------------------------------------------------------------------| 
 
E|-----------------------------12/19---12^-12/10/7--| 
B|-----10--12-12-12/14-11-11/-----------------------| 
g|-9------------------------------------------------| 
d|--------------------------------------------------| 
a|--------------------------------------------------| 
e|--------------------------------------------------| 
 
(Bm A)  
 
[email protected] vlw 

		  

Full key step upFull key step up
Half key step upHalf key step up
Half key step downHalf key step down
Full key step downFull key step down
hide glossary

See also:

tabs Mamonas Assassinas - Vira-Vira (intro) tabs Mamonas Assassinas - Chopis Centis tabs Mamonas Assassinas - 1406 tabs Mamonas Assassinas - CabeÁa De Bagre II (intro e solo) tabs Mamonas Assassinas - Robocop Gay (intro) tabs Mamonas Assassinas - Solo Bento Hinoto
e-chords

Other versions:

tabs Renato Fechine - Bebe Neg„o - solos
auto scroll beats size up size down change color hide chords drawings
tab show chords e-chords YouTube Clip e-chords hide all tabs e-chords go to top tab

share