Red

What You Keep Alive

Red

tabs

by  ALYSLIMA

save to print version add songbook text version e-mail correct tuner
chordsukulelecavacokeyboardtabbassdrumsharmonicaflute Guitar Pro
close

there isn't a video lesson for this song

chords

What You Keep Alive

	  		Tuning: Drop A 

Intro Part 1 (x2) 
B |-----------------------------| 
F#|-----------------------------| 
D |-----------------------------| 
A |-----------------------------| 
E |-----------------------------| 
A |-6--0--0-3--0--0-5--0--0-0---| 

Intro Part 2 
B |-----------------------------------------------| 
F#|-----------------------------------------------| 
D |-----------------------------------------------| 
A |-----------------------------------------------| x3 
E |-------------------------------------------5---| 
A |-6--0--0-0-3--0--0-0-5--0--0-0-0-6-3-0-0-3-----| 

B |---------------------------| 
F#|---------------------------| 
D |---------------------------| 
A |-6--0--0-3--0--0-5--0--0---| 
E |-6--0--0-3--0--0-5--0--0---| 
A |-6--0--0-3--0--0-5--0--0---| 

verse 1 (x4) 
B |----------------------------------------------------------| 
F#|----------------------------------------------------------| 
D |----------------------------------------------------------| 
A |----------------------------------------------------------| 
E |----------------------------------------------------------| 
A |-12--0--0-0----10--0--0-0----8--0--0-0----6--0--0-3-0-5-8-| 

Pre-Chorus 1 (x2) 
B |-----------------------------| 
F#|-----------------------------| 
D |-----------------------------| 
A |-----------------------------| 
E |-----------------------------| 
A |-0-(x8)-1-(x8)-3-(x8)-5-(x8)-| 

Chorus 1 (x2) 
B |---------------------------------------------------------| 
F#|---------------------------------------------------------| 
D |---------------------------------------------------------| 
A |-10--10--10-10----1--1--1-1----7--7--7-7----0--0--0-0----| 
E |-10--10--10-10----1--1--1-1----4--4--4-4----0--0--0-0----| 
A |-10--10--10-10----1--1--1-1----4--4--4-4----0--0--0-0----| 

Interlude (Same as Intro) 


Bridge Part 1 ('Turning...') 
B |--------------------------------------------------------| 
F#|--------------------------------------------------------| 
D |---------------------10--10--10-10-----10--10--10-10----| 
A |-5----8----8----8----0---0---0--0------0---0---0--0-----| 
E |-5----8----8----8----0---0---0--0------0---0---0--0-----| 
A |-5----8----8----8----0---0---0--0------0---0---0--0-----| 

Bridge Part 2 (x4) 
B |---------------------------------| 
F#|---------------------------------| 
D |---------------------------------| 
A |---------------------------------| 
E |---------------------------------| 
A |-6--0--0-3--0--0-5--0--0-3-0-3-5-| 

Bridge Part 3 (x4) 
B |-------------------------------------| 
F#|-------------------------------------| 
D |-------------8-----------------------| 
A |-0-3-1-0-3-0-----13-10---x-10-6-12-8-| 
E |-0-3-1-0-3-0-6---13-10---x-10-6-12-8-| 
A |-0-3-1-0-3-0-----13-10---x-10-6-12-8-|  
		  

Full key step upFull key step up
Half key step upHalf key step up
Half key step downHalf key step down
Full key step downFull key step down
hide glossary

See also:

tabs Flatt & Scruggs - Dueling Banjos (lmofle Version) tabs Bleach - Chu-bura tabs Jars of Clay - Overjoyed tabs 12-Stones - Photograph tabs Brad Paisley - The Old Rugged Cross (ver. 2) tabs Jars of Clay - Like A Child
e-chords

Other versions:

tabs Red - What You Keep Alive
auto scroll beats size up size down change color hide chords drawings
tab show chords e-chords YouTube Clip e-chords hide all tabs e-chords go to top tab

share