Red

Run And Escape

Red

tabs

by  ABELAMIN

save to print version add songbook text version e-mail correct tuner
chordsukulelecavacokeyboardtabbassdrumsharmonicaflute Guitar Pro
close

there isn't a video lesson for this song

chords

Run And Escape

	  		

Intro Pt. 1(0:33-0:44)(x4)(I'm not sure how to denote bends properly, so I'll just tell you what to do. 
After the two "0" chords, strum the "5-7-7" chord, but prebend it so that you get the sound of 
the "6-8-8" chord, and  
then bring it back)(Also, if you can't seem to get that to work, you can slide from the "6-8-8" 
chord to the "5-7-7" chord--which is what is tabbed below--and the effect will be very similar) 
B|---------------------------------------------------------------------------| 
F#|--------------------------------------------------------------------------| 
D|-------8\7-----------------------------------------------------------------| 
a|-0--0--8\7-----------------------------------------------------------------| 
E|-0--0--6\5-----------------------------------------------------------------| 
A|-0--0----------------------------------------------------------------------| 

Intro Pt. 2(0:44-0:56)(x4) 
B|---------------------------------------------------------------------------| 
F#|--------------------------------------------------------------------------| 
D|-------8\7-----------------------------------------------------------------| 
a|-0--0--8\7-----------------------------------------------------------------| 
E|-0--0--6\5-----------------------------------------------------------------| 
A|-0--0------0-0-5-7-0-0-5-7-0-----------------------------------------------| 

Verse I 
B|---------------------------------------------------------------------------| 
F#|--------------------------------------------------------------------------| 
D|-----------------------6\7-------------------------------------------------| 
a|-0-0--0-0--0-0-0-0-0-0-8\7-------------------------------------------------| 
E|-0-0--0-0--0-0-0-0-0-0-6\5-------------------------------------------------| 
A|-0-0--0-0--0-0-0-0-0-0-----------------------------------------------------| 
All "0" chords above are palm-muted. 
B|---------------------------------------------------------------------------| 
F#|--------------------------------------------------------------------------| 
D|-----------------------8\7-------------------------------------------------| 
a|-0-0--0-0--0-0-0-0-0-0-8\7-------------------------------------------------| 
E|-0-0--0-0--0-0-0-0-0-0-6\5-------------------------------------------------| 
A|-0-0--0-0--0-0-0-0-0-0-----------------------------------------------------| 
All "0" chords above are palm-muted. 
B|---------------------------------------------------------------------------| 
F#|--------------------------------------------------------------------------| 
D|-----------------------8\7-------------------------------------------------| 
a|-8-8--8-8--8-8-8-8-8-8-8\7-------------------------------------------------| 
E|-8-8--8-8--8-8-8-8-8-8-6\5-------------------------------------------------| 
A|-8-8--8-8--8-8-8-8-8-8-----------------------------------------------------| 
All "8" chords above are palm-muted. 
B|---------------------------------------------------------------------------| 
F#|--------------------------------------------------------------------------| 
D|-----------------------8\7-------------------------------------------------| 
a|-0-0--0-0-0-0-0-0--0-0-8\7-------------------------------------------------| 
E|-0-0--0-0-0-0-0-0--0-0-6\5-------------------------------------------------| 
A|-0-0--0-0-0-0-0-0--0-0-----------------------------------------------------| 
All "0" chords above are palm-muted. 
B|---------------------------------------------------------------------------| 
F#|--------------------------------------------------------------------------| 
D|---------------------------------------------------------------------------| 
a|---------------------------------------------------------------------------| 
E|---------------------------------------------------------------------------| 
A|-0-5-7-0-5-7-0------0-8-0-5-0-0-5-7-0-5-7-0-------0-8-0-5-0----------------| 

B|---------------------------------------------------------------------------| 
F#|--------------------------------------------------------------------------| 
D|---------------------------------------------------------------------------| 
a|---------------------------------------------------------------------------| 
E|---------------------------------------------------------------------------| 
A|-0-5-7-0-5-7-0------0-8-0-5-0-0-5-7-0-5-7-0-------0-8-0-5-0----------------| 

PreChorus I 
B|---------------------------------------------------------------------------| 
F#|--------------------------------------------------------------------------| 
D|---------------------------------------------------------------------------| 
a|-0-------------------------------------------------------------------------| 
E|-0-(LR)--------------------------------------------------------------------| 
A|-0-------------------------------------------------------------------------| 

Chorus I 
B|---------------------------------------------------------------------------| 
F#|--------------------------------------------------------------------------| 
D|---------------------------------------------------------------------------| 
a|-0--------8-------10-------0--------8-------10-----------------------------| 
E|-0-(x16)--8-(x8)--10-(x8)--0-(x16)--8-(x8)--10-(x8)------------------------| 
A|-0--------8-------10-------0--------8-------10-----------------------------| 

B|---------------------------------------------------------------------------| 
F#|--------------------------------------------------------------------------| 
D|---------------------------------------------------------------------------| 
a|-12-12--x-x-x-x-x-x-8-8--x-x-x-x-x-x-10-10--x-x-x-x-x-x-7-7-7-7-7-7-7-7----| 
E|-12-12--x-x-x-x-x-x-8-8--x-x-x-x-x-x-10-10--x-x-x-x-x-x-7-7-7-7-7-7-7-7----| 
A|-12-12--x-x-x-x-x-x-8-8--x-x-x-x-x-x-10-10--x-x-x-x-x-x-7-7-7-7-7-7-7-7----| 

B|---------------------------------------------------------------------------| 
F#|--------------------------------------------------------------------------| 
D|---------------------------------------------------------------------------| 
a|-12-12--x-x-x-x-x-x-8-8--x-x-x-x-x-x-10-10--x-x-x-x-x-x-7-7-7-7-7-7-7-7----| 
E|-12-12--x-x-x-x-x-x-8-8--x-x-x-x-x-x-10-10--x-x-x-x-x-x-7-7-7-7-7-7-7-7----| 
A|-12-12--x-x-x-x-x-x-8-8--x-x-x-x-x-x-10-10--x-x-x-x-x-x-7-7-7-7-7-7-7-7----| 

Turnaround riff(Same as Intro Pt.2) 

Verse II(Same as Verse I) 

Chorus II(Same as Chorus I) 

Bridge 
B|---------------------------------------------------------------------------| 
F#|--------------------------------------------------------------------------| 
D|----------7----------------------------9------------9----------------------| 
a|-0----x-x-7------------------0--0--x-x-7-----------------------------------| 
E|-0----x-x-5------------------0--0--x-x------------7---8-7------------------| 
A|-0----x-x----0-5-7-0-5-8-7-5-0--0--x-x----0-5-7-0--------------------------| 

B|---------------------------------------------------------------------------| 
F#|--------------------------------------------------------------------------| 
D|----------7----------------------------9-----------------------------------| 
a|-0----x-x-7------------------0--0--x-x-7--x-x-8--7--3----------------------| 
E|-0----x-x-5------------------0--0--x-x----x-x-8--7--3----------------------| 
A|-0----x-x----0-5-7-0-5-8-7-5-0--0--x-x----x-x-8--7--3----------------------| 

The silent part of the song occurs here, and then the guitar comes in. 

B|---------------------------------------------------------------------------| 
F#|--------------------------------------------------------------------------| 
D|---------------------------------------------------------------------------| 
a|-0-0-0-0-3-3-1-1-0-0-6-6-3-3-7-7-0-0-0-0-8-8-4-4-7-7-3-3-6-6-1-1-----------| 
E|-0-0-0-0-3-3-1-1-0-0-6-6-3-3-7-7-0-0-0-0-8-8-4-4-7-7-3-3-6-6-1-1-----------| 
A|-0-0-0-0-3-3-1-1-0-0-6-6-3-3-7-7-0-0-0-0-8-8-4-4-7-7-3-3-6-6-1-1-----------| 

B|---------------------------------------------------------------------------| 
F#|--------------------------------------------------------------------------| 
D|---------------------------------------------------------------------------| 
a|-0-0-0-0-3-3-1-1-0-0-6-6-3-3-7-7-0-0-0-0-8-8-4-4-7-7-3-3-6-6-1-1-----------| 
E|-0-0-0-0-3-3-1-1-0-0-6-6-3-3-7-7-0-0-0-0-8-8-4-4-7-7-3-3-6-6-1-1-----------| 
A|-0-0-0-0-3-3-1-1-0-0-6-6-3-3-7-7-0-0-0-0-8-8-4-4-7-7-3-3-6-6-1-1-----------| 

"HELP ME!!!!!!" 

B|---------------------------------------------------------------------------| 
F#|--------------------------------------------------------------------------| 
D|---------------------------------------------------------------------------| 
a|-0--------5--------8--------3--------0--------5--------8--------3----------| 
E|-0-(x16)--5-(x16)--8-(x16)--3-(x16)--0-(x16)--5-(x16)--8-(x16)--3-(x16)----| 
A|-0--------5--------8--------3--------0--------5--------8--------3----------| 

B|---------------------------------------------------------------------------| 
F#|--------------------------------------------------------------------------| 
D|---------------------------------------------------------------------------| 
a|-0--------8-------10-------0--------8-------10-----------------------------| 
E|-0-(x16)--8-(x8)--10-(x8)--0-(x16)--8-(x8)--10-(x8)------------------------| 
A|-0--------8-------10-------0--------8-------10-----------------------------| 

B|---------------------------------------------------------------------------| 
F#|--------------------------------------------------------------------------| 
D|---------------------------------------------------------------------------| 
a|-12-12--x-x-x-x-x-x-8-8--x-x-x-x-x-x-10-10--x-x-x-x-x-x-7-7-7-7-7-7-7-7----| 
E|-12-12--x-x-x-x-x-x-8-8--x-x-x-x-x-x-10-10--x-x-x-x-x-x-7-7-7-7-7-7-7-7----| 
A|-12-12--x-x-x-x-x-x-8-8--x-x-x-x-x-x-10-10--x-x-x-x-x-x-7-7-7-7-7-7-7-7----| 

B|---------------------------------------------------------------------------| 
F#|--------------------------------------------------------------------------| 
D|---------------------------------------------------------------------------| 
a|-12-12--x-x-x-x-x-x-8-8--x-x-x-x-x-x-10-10--x-x-x-x-x-x-7-7-7-7-7-7-7-7----| 
E|-12-12--x-x-x-x-x-x-8-8--x-x-x-x-x-x-10-10--x-x-x-x-x-x-7-7-7-7-7-7-7-7----| 
A|-12-12--x-x-x-x-x-x-8-8--x-x-x-x-x-x-10-10--x-x-x-x-x-x-7-7-7-7-7-7-7-7----| 

Outroduction 
B|---------------------------------------------------------------------------| 
F#|--------------------------------------------------------------------------| 
D|---------------------------------------------------------------------------| 
a|-6-6-0--1-1-0--3-4-0--3-6--------------------------------------------------| 
E|-6-6-0--1-1-0--3-4-0--3-6--------------------------------------------------| 
A|-6-6-0--1-1-0--3-4-0--3-6--------------------------------------------------| 

B|---------------------------------------------------------------------------| 
F#|--------------------------------------------------------------------------| 
D|---------------------------------------------------------------------------| 
a|-6-6-0--1-1-0--3-4-0--7-7-3------------------------------------------------| 
E|-6-6-0--1-1-0--3-4-0--7-7-3------------------------------------------------| 
A|-6-6-0--1-1-0--3-4-0--7-7-3------------------------------------------------| 

B|---------------------------------------------------------------------------| 
F#|--------------------------------------------------------------------------| 
D|---------------------------------------------------------------------------| 
a|-6-6-0--1-1-0--3-4-0--3-6--------------------------------------------------| 
E|-6-6-0--1-1-0--3-4-0--3-6--------------------------------------------------| 
A|-6-6-0--1-1-0--3-4-0--3-6--------------------------------------------------| 

B|---------------------------------------------------------------------------| 
F#|--------------------------------------------------------------------------| 
D|---------------------------------------------------------------------------| 
a|-6-6-0--1-1-0--3-4-0--7-7-3------------------------------------------------| 
E|-6-6-0--1-1-0--3-4-0--7-7-3------------------------------------------------| 
A|-6-6-0--1-1-0--3-4-0--7-7-3------------------------------------------------| 

************************************ 

| /   slide up 
| \   slide down 
| x   Mute note 

************************************ 
		  

See also:

tabs Flatt & Scruggs - Dueling Banjos (lmofle Version) tabs Bleach - Chu-bura tabs Jars of Clay - Overjoyed tabs 12-Stones - Photograph tabs Brad Paisley - The Old Rugged Cross (ver. 2) tabs Jars of Clay - Like A Child
e-chords

Other versions:

tabs Red - Run And Escape
auto scroll beats size up size down change color hide chords drawings
tab show chords e-chords YouTube Clip e-chords hide all tabs e-chords go to top tab

share