Red

Fight To Forget

Red

tabs

by  ABELAMIN

save to print version add songbook text version e-mail correct tuner
chordsukulelecavacokeyboardtabbassdrumsharmonicaflute Guitar Pro
close

there isn't a video lesson for this song

chords

Fight To Forget

	  		Intro (x2) 
C |-----------------------------------------------------------------------------| 
G |-----------------------------------------------------------------------------| 
Eb|-----------------------------------------------------------------------------| 
Bb|-0-0-6-3-0-5-3-1-0-0-6-3-0-5-3---0-0-6-3-0-5-3-1-----------------------------| 
F |-0-0-6-3-0-5-3-1-0-0-6-3-0-5-3---0-0-6-3-0-5-3-1-----------------------------| 
Bb|-0-0-6-3-0-5-3-1-0-0-6-3-0-5-3---0-0-6-3-0-5-3-1-0---0-0-3-0-0-0-6-0-0-0-3---| 
                                                                            + 
verse 1 Part 1 (x4) 
C |-----------| 
G |-----------| 
Eb|-----------| 
Bb|-----------| 
F |-----------| 
Bb|-0-6---0-3-| 

verse 1 Part 2 
C |-----------------------------------------------------------------| 
G |-----------------------------------------------------------------| 
Eb|-----------------------------------------------------------------| 
Bb|---------------------------------------------------------5-------| 
F |---------------------3---6---5-----------------------3-------6---| 
Bb|-0-0-0-0-6---0-0-0-0-------------0-0-0-0-6---0-0-0-0-------------| 

C |-----------------------------------------------------------------| 
G |-----------------------------------------------------------------| 
Eb|-----------------------------------------------------------------| 
Bb|-----------------------------------------------------------------| 
F |---------------------3---6---5-----------------------5---6---8---| 
Bb|-0-0-0-0-6---0-0-0-0-------------0-0-0-0-6---0-0-0-0-------------| 

Chorus 1 (x2) 
C |-----------------------------| 
G |-----------------------------| 
Eb|-----------------------------| 
Bb|-4---5---8-------------------| 
F |-4---5---8-------------------| 
Bb|-4---5---8---6-0-0-6-0-0-4-8-| 

Riff (Same as Intro) 


Bridge Part 1 (x2) 
C |-----------------------------| 
G |-----------------------------| 
Eb|-----------------------------| 
Bb|-4---5---8-------------------| 
F |-4---5---8-------3-----5-----| 
Bb|-4---5---8---0-1---1-0---8-7-| 

Bridge Part 2 
C |----------------------------------------------------------| 
G |----------------------------------------------------------| 
Eb|----------------------------------------------------------| 
Bb|----------------------------------------------------------| 
F |----------------------------------------------------------| 
Bb|-2-(x8)-1-(x8)-0-(x8)-7-(x8)-2-(x8)-1-(x8)-0-(x8)-7-(x16)-| 



************************************ 

| /   slide up 
| \   slide down 
| h   hammer-on 
| p   pull-off 
| ~   vibrato 
| +   harmonic 
| x   Mute note 
| b   Bend 
| pb  Pre-bend 
| br  Bend release 
| pbr Pre-bend release 
| brb Bend release bend 

************************************ 
		  

See also:

tabs Flatt & Scruggs - Dueling Banjos (lmofle Version) tabs Bleach - Chu-bura tabs Jars of Clay - Overjoyed tabs 12-Stones - Photograph tabs Brad Paisley - The Old Rugged Cross (ver. 2) tabs Jars of Clay - Like A Child
e-chords

Other versions:

tabs Red - Fight To Forget
auto scroll beats size up size down change color hide chords drawings
tab show chords e-chords YouTube Clip e-chords hide all tabs e-chords go to top tab

share