Red Hot Chili Peppers

home > Red Hot Chili Pepp...

Tell Me Baby Tab

Red Hot Chili Peppers

Difficulty: BeginnerBeginner

tuner correct add songbook print version text version save to e-mail
chordsukulelecavacokeyboardtabbassdrumsharmonicsflute Guitar Pro
chords

Tell Me Baby

Year: 2006 - Album: Stadium Arcadium

  		Introdução: 
 
     C       C/G       Em                C       C/G       Em       Dm 
e|--------|--------|--------|--------|--------|--------|--------|---1----| 
B|----1---|----1---|----0---|0h1h0---|----1---|----1---|----0---|---3----| 
G|--------|--------|--------|------2-|--------|--------|--------|---2----| 
D|--2-----|--2-----|--2-----|--------|--2-----|--2-----|--2-----|---0----| 
A|--3-----|--0-----|--2-----|--------|--3-----|--0-----|--2-----|--------| 
E|--------|--3-----|--------|--------|--------|--3-----|--------|--------| 
 
 
    C       C/G       Em                C        C/G       Dm 
e|--------|--------|--------|--------|--------|--------|---1----| 
B|----1---|----1---|----0---|1h3h1---|----1---|----1---|---3----| 
G|--------|--------|--------|------2-|--------|--------|---2----| 
D|--2-----|--2-----|--2-----|--------|--2-----|--2-----|---0----| 
A|--3-----|--0-----|--2-----|--------|--3-----|--0-----|--------| 
E|--------|--3-----|--------|--------|--------|--3-----|--------| 
 
 
Riff: 
 
e|------------------------|       |----------------------------| 
B|------------------------|       |----------------------------| 
G|---14--------14---------| 3X    |---14----17-16----14----14--| 
D|17----14-17------14-14--|       |17----17-------17-----17----| 
A|------------------------|       |----------------------------| 
E|------------------------|       |----------------------------| 
 
 
Depois do Riff ele segura em Em:           Mas antes de voltar pro Riff novamente ele puxa um Gm: 
 
     Em                                                      Gm 
e|---12---|                                             e|---15---| 
B|---12---|                                             B|---15---| 
G|---12---|                                             G|---15---| 
D|--------|                                             D|--------| 
A|--------|                                             A|--------| 
E|--------|                                             E|--------| 
 
 
 
 
Refrão: 
 
     F        C        G        Am     
e|--8-----|--8-----|--------|---12---| 
B|--10----|--8-----|--12----|---13---| 
G|--10----|--9-----|--12----|---14---| 
D|--10----|--10----|--12----|---14---| 
A|--8-----|--10----|--10----|---12---| 
E|--------|--8-----|--------|--------| 
 
     F        C        G       F7M     
e|--8-----|--8-----|--------|---13---| 
B|--10----|--8-----|--12----|---13---| 
G|--10----|--9-----|--12----|---14---| 
D|--10----|--10----|--12----|---14---| 
A|--8-----|--10----|--10----|---12---| 
E|--------|--8-----|--------|--------| 
 
 
a nota que fecha a música é F7M: 
 
   F7M          
e|--------| 
B|--10----| 
G|--9-----| 
D|--10----| 
A|--8-----| 
E|--------| 

	  

Full key step upFull key step up
Half key step upHalf key step up
Half key step downHalf key step down
Full key step downFull key step down
Search Paypal
auto scroll beats size up size down change color hide chords drawings
tab show chords e-chords YouTube Clip e-chords hide all tabs e-chords go to top tab