Red Hot Chili Peppers

home > Red Hot Chili Pepp...

Rivers of avalon Tab

Red Hot Chili Peppers

Difficulty: AdvancedAdvanced

by europeu

tuner correct add songbook print version text version save to e-mail
chordsukulelecavacokeyboardtabbassdrumsharmonicsflute Guitar Pro
chords

Rivers of avalon

  		intro and verse 
 
e------------------------------------------------ 
B------------------------------------------------ 
G------------------------------------------------ 
D-----------------------------2-0---------3---2-2 (something like that) 
A----7-----------3---3----2-------2---3-----3---- 
E--5---5-7-8-1-0---0---03---3-------1---1-------- 
 
e-------------------------------------------- 
B-------------------------------------------- 
G-----------------------------------------0-2 
D-----------------------------2-0------------  (not sure about this one) 
A----7-----------3---3----2-------2---3------ 
E--5---5-7-8-1-0---0---03---3-------1---1---- 
 
pre Chorus 
you're the reason i'm in this      wor-ur-or-ur-orld 
e------------------------------------------------ 
B------------------------------------------------ 
G------------------------------------------------ 
D-----------------------------2-0---------------- 
A----7-----------3---3----2-------2---3---3---3-- (not 100% right lose) 
E--5---5-7-8-1-0---0---03---3-------1---1---1---1 
 
Chorus 
     Dm        C        Am            (rivers of avalon) 
e---------------------------------------------------------------- 
B-------------------------------------10--8--8--10--8--8--10--8-- 
G--x999-7-7--x999-7-7--x999-7-7-------9---9--9--9---9--9--9---9--   X4 
D---------------------------------------------------------------- 
A---------------------------------------------------------------- 
E---------------------------------------------------------------- 
 
solo 
 
e--------------------------------------------------------------------- 
B--------------------------------------------------------------------- 
G--------------9-7-5-4---------/9-7-5-4---------/9-7-5-4-------------- 
D-------7-7-77---------/7-7-77---------/7-7-77-----------7-7-77------- 
A---------------------------------------------------------------7-7-77 
E--------------------------------------------------------------------- 
 
outro 
 
     Dm        C        Am            all that it meeeeannss 
e---------------------------------------------------------------- 
B-------------------------------------10--8--8--10--8--8--10--8--repeat 
G--x999-7-7--x999-7-7--x999-7-7-------9---9--9--9---9--9--9---9-- 
D---------------------------------------------------------------- 
A---------------------------------------------------------------- 
E---------------------------------------------------------------- 
 
last chord 
 
Dm 
 
e--1--- 
B--3--- 
G--2--- 
D--0--- 
A------ 
E------ 

	  

Full key step upFull key step up
Half key step upHalf key step up
Half key step downHalf key step down
Full key step downFull key step down
Search Paypal
auto scroll beats size up size down change color hide chords drawings
tab show chords e-chords YouTube Clip e-chords hide all tabs e-chords go to top tab