Rammstein

home > Rammstein

Du Hast Tab

Rammstein

Difficulty: BeginnerBeginner

tuner correct add songbook print version text version save to e-mail
chordsukulelecavacokeyboardtabbassdrummharmonicsflute Guitar Pro
chords

Du Hast

  		                                                      Palm Mute all Diads


    Riff 1                                                   3x         
E---||-------------------------------------------------------||--|------
B---||-------------------------------------------------------||--|------
G---||*-----------------------------------------------------*||--|------
D---||*--7--\--5--------------------7--5--------------------*||--|------
A---||---7--\--5--2--2--2--2--2--2--7--5--2--2--2--2--2--2---||--|------
E---||---5--\--3--0--0--0--0--0--0--5--3--0--0--0--0--0--0---||--|------
                                                                        

                                     Riff 2                             
E------------------------------|-----||---------------------------------
B------------------------------|-----||---------------------------------
G------------------------------|-----||*--------------------------------
D---5--/--7--------------------|-----||*--7--\--5-----------------------
A---5--/--7--7--7--7--7--7--7--|-----||---7--\--5--2--2--2--2--2--2-----
E---3--/--5--5--5--5--5--5--5--|-----||---5--\--3--0--0--0--0--0--0-----
                                                                        

                             2x                                   2x    
E----------------------------||--||-------------------------------||----
B----------------------------||--||-------------------------------||----
G---------------------------*||--||*-----------------------------*||----
D---7--5--------------------*||--||*--5--/--7--------------------*||----
A---7--5--2--2--2--2--2--2---||--||---5--/--7--7--7--7--7--7--7---||----
E---5--3--0--0--0--0--0--0---||--||---3--/--5--5--5--5--5--5--5---||----
                                                                        

                                                                        
E-------------------------------------|---------------------------|-----
B-------------------------------------|---------------------------|-----
G-------------------------------------|---------------------------|-----
D---7--/--10--------------------------|--10--9--------------------|-----
A---7--/--10--10--10--10--10--10--10--|--10--9--9--9--9--9--9--9--|-----
E---5--/--8---8---8---8---8---8---8---|--8---7--7--7--7--7--7--7--|-----
                                                                        

                                                             2x         
E---||-------------------------------------------------------||---------
B---||-------------------------------------------------------||---------
G---||*-----------------------------------------------------*||---------
D---||*--7--\--5--------------------7--5--------------------*||---------
A---||---7--\--5--2--2--2--2--2--2--7--5--2--2--2--2--2--2---||---------
E---||---5--\--3--0--0--0--0--0--0--5--3--0--0--0--0--0--0---||---------
                                                                        

Keyboard Fill played at the end of each chorus. Note: Same notes in each bar, different phrasing.
---24-22----20-19-------20-22-19------|--24-22-----20--19---------20-22--19--|
---------22-------17-17---------------|--------22----------17--17------------|
--------------------------------------|--------------------------------------|
--------------------------------------|--------------------------------------|
--------------------------------------|--------------------------------------|
--------------------------------------|--------------------------------------|


Song Progression: 
Keyboard intro 
Riff 1 
Verse 1: 
Riff 1 
Verse 2: 
Chorus: 
(Riff 2 x3) 
Verse 3: 
(Play Riff near the end of the third verse) 
Chorus: 
(Riff 2 x4) 
	  

Search Paypal
auto scroll beats size up size down change color hide chords drawings
tab show chords e-chords YouTube Clip e-chords hide all tabs e-chords go to top tab