Rammstein

home > Rammstein

Wilder Wein Tab

Rammstein

Difficulty: nolevelnolevel

by victborges

tuner correct add songbook print version text version save to e-mail
chordsukulelecavacokeyboardtabbassdrummharmonicsflute Guitar Pro
chords

Wilder Wein

  		Intro: 
 
E|----------------------------------------|Toque essa parte 2x.           } 
B|----------------------------------------|Tap this part 2x               } 
G|----------------------------------------|Tippen Sie dieses Teil 2x      } 
D|-----2-------2-------2-------2-------3--|                               }Toque tudo isso 2x 
A|-0-------0-------0-------0-------0------|                               }Tap all of 2x 
E|----------------------------------------|                               }Tippen Sie alle 2x 
 
                                                                          } 
 
E|-----------------------------------------------------------------------|} 
B|-----------------------------------------------------------------------|} 
G|-----------------------------------------------------------------------|} 
D|-----2-------2-------2-------2-------3--2--1--0------------------------|} 
A|-0-------0-------0-------0-------0---------------2--3--2-1--2--0-------|} 
E|-----------------------------------------------------------------------|} 
 

Riff: 
Wilder Wein-vor deinem Schloss 
Wilder Wein-ich bin bereit 
man meldet Ankunft-nur fuer den Koenig 
Gott steh mir bei-und oeffne deine Tore 
Wilder Wein-und ganz langsam 
Wilder Wein-so warm und feucht 

Wilder Wein-vor deinem Schloss 
Wilder Wein-es steht geschrieben 
tiefer Wasser-kreuzt man nicht 
doch mein Lust-verlacht die Fluegel 
Wilder Wein-wie eineTaube 
Wilder Wein-so nass und heiss 

 
E|----------------------------------------|Toque essa parte 2x. 
B|----------------------------------------|Tap this part 2x 
G|----------------------------------------|Tippen Sie dieses Teil 2x 
D|-----2-------2-------2-------2-------3--| 
A|-0-------0-------0-------0-------0------| 
E|----------------------------------------| 
 

 
E|-----------------------------------------------------------------------| 
B|-----------------------------------------------------------------------| 
G|-----------------------------------------------------------------------| 
D|-----2-------2-------2-------2-------3--2--1--0------------------------| 
A|-0-------0-------0-------0-------0---------------2--3--2-1--2--0-------| 
E|-----------------------------------------------------------------------| 
 


Essa parte é a que o Richard, Paul e o Oliver entram com o violão 
This is the part that Richard, Paul and Oliver come with the guitar 
Dies ist der Teil, der Richard, Paul und Oliver kommen mit der Gitarre 

Na Live aus Berlin '98 essa parte foi reproduzida com 3 violões eletro-acusticos no palco (isso não quer dizer que você vai precisar de 3 pessoas e violão eletro-acustico para tocar essa musica) 
Live aus Berlin in '98 that part was played with 3 guitars electro-acoustics on stage (this does not mean that you will need 3 people and electro-acoustic guitar to play this song) 
 
Live aus Berlin '98, dass ein Teil wurde mit 3 Gitarren Elektroakustik auf der Bühne gespielt (das bedeutet nicht, dass Sie benötigen 3 Personen und elektro-akustische Gitarre das Lied zu spielen) 
 
 
       C         D 
E|--------|-2--2--2--2-| 
B|-1----1-|-3--3--3--3-| 
G|--------|-2--2--2--2-| 
D|-2----2-|------------| 
A|-3----3-|------------| 
E|--------|------------| 
 

Wilder Wein-vor diesem Dunkel 
Wilder Wein-von Licht geheilt 
es bleibt verborgen-sonst koennten wir uns wehren 
ich warte auf dich-am Ende der Nacht 
Wilder Wein-nur eine Traube 
Wilder Wein-und bitter wie Schnee 

ich warte auf dich-am Ende der Nacht 
ich warte auf dich-am Ende der Nacht 
ich warte auf dich-am Ende der Nacht 
ich warte auf dich-am Ende der Nacht 
	  

Full key step upFull key step up
Half key step upHalf key step up
Half key step downHalf key step down
Full key step downFull key step down
Search Paypal
auto scroll beats size up size down change color hide chords drawings
tab show chords e-chords YouTube Clip e-chords hide all tabs e-chords go to top tab