Rammstein

home > Rammstein

Du Hast Bass Tab

Rammstein

Difficulty: BeginnerBeginner

by piscoloco1

tuner correct add songbook print version text version save to e-mail
chordsukulelecavacokeyboardtabbassdrummharmonicsflute Guitar Pro
chords

Du Hast

  		Intro: 
G---------------------------| 
D---------------------------| 
A---------------------------| 
E--5-3-0-0-0-0-0-0-0-0-5-3--|x2 


G-------------------------|--------------------------| 
D-------------------------|--------------------------| 
A-------------------------|--------------------------| 
E-5-3-0-0-0-0-0-0-0-0-3-5-|--5-5-5-5-5-5-5-5-5-5-3---| 

riff 1 
G-------------------------|--------------------------| 
D-------------------------|--------------------------| 
A-------------------------|--------------------------| 
E--0-0-0-0-0-0-0-0-0-5-3--|0-0-0-5-3-0-0-0-3-5-------| 

G-------------------------| 
D-------------------------|  
A-------------------------| 
E--5-3-0-0-0-0-0-0-0-5-3--|x2 

G-------------------------|--------------------------| 
D-------------------------|--------------------------| 
A-------------------------|--------------------------| 
E-5-3-0-0-0-0-0-0-0-0-3-5-|--5-5-5-5-5-5-5-5-5-5-3---| 

G-------------------------|--------------------------| 
D-------------------------|--------------------------| 
A-------------------------|--------------------------| 
E--0-0-0-0-0-0-0-0-0-5-3--|0-0-0-5-3-0-0-0-3-5-------| 

G-------------------------|--------------------------| 
D-------------------------|--------------------------|  
A-------------------------|--------------------------| 
E--5-3-0-0-0-0-0-0-0-5-3--|--5-5-5-5-5-5-5-5-5-5-5---| 

|-------------------------|--------------------------| 
|-------------------------|--------------------------| 
|-------------------------|--------------------------| 
|x3-5-5-5-5-5-5-5-5-5-----|8-8-8-8-8-8-8-------------| 

|-------------------------|--------------------------| 
|-------------------------|--------------------------| 
|-------------------------|--------------------------| 
|--7-7-7-7-7-7-7----------|--5-3-0-0-0-0-0-0-0-0-5-3-| 
	  

Search Paypal
auto scroll beats size up size down change color hide chords drawings
tab show chords e-chords YouTube Clip e-chords hide all tabs e-chords go to top tab