Quinn XCII

U And Us

Quinn XCII

tabs

by  TERR_SCHMITZ

save to print version add songbook text version e-mail correct tuner
chordsukulelecavacokeyboardtabbassdrumsharmonicaflute Guitar Pro
close

there isn't a video lesson for this song

chords

U And Us

Key:  Bm More
U And Us Key F#mF#m
U And Us Key GmGm
U And Us Key G#mG#m
U And Us Key AmAm(one step down)
U And Us Key A#mA#m(half step down)
U And Us Key BmBm(original key)
U And Us Key CmCm(half step up)
U And Us Key C#mC#m(one step up)
U And Us Key DmDm
U And Us Key D#mD#m
U And Us Key EmEm
U And Us Key FmFm
	  		
Intro + First Verse) 
      Bm                             A             
e|---------------------------------------------------------------------------| 
B|-------5---------------5--------------2--------------2---------------------| 
G|----------6----------------6--------------2---------------2----------------| 
D|-------------6-----------------6-------------2----------------2------------| 
A|----4------------4-----------------0-------------0-------------------------| 
E|---------------------------------------------------------------------------| 
      E 
e|---------------------------------------------------------------------------| 
B|---------------------------------------------------------------------------| 
G|--------1----------------1-----------------1---------------1---------------|        
D|------------2----------------2-----------------2---------------2-----------| 
A|----------------2----------------2-----------------2---------------2-------| 
E|----0----------------0----------------0----------------0-------------------| 


Repeat pattern until last line of Verse: 

I lie here restless like lines for a guest list 
Waiting for your message 
I call out your name 
But nobody answers 
We spiral like dancers 
I'll write you these last words to say 
I'm begging, begging, begging 
you to please don't go 
I don't wanna see you 
Be with someone else 

Don't make me drive at night in Hollywood as evenings go 
      Bm                             A             
e|---------------------------------------------------------------------------| 
B|-------5---------------5--------------2--------------2---------------------| 
G|----------6----------------6--------------2---------------2----------------| 
D|-------------6-----------------6-------------2----------------2------------| 
A|----4------------4-----------------0-------------0-------------------------| 
E|---------------------------------------------------------------------------| 

I don't wanna put what we had on the shelf  
     E 
e|---------------------------------------------------------------------------| 
B|---------------------------------------------------------------------------| 
G|--------1----------------1-------------------------------------------------|        
D|------------2----------------2---------------------------------------------| 
A|----------------2----------------2-----------------------------------------| 
E|----0----------------0----------------0---0--------------------------------| 

  

Chorus 

     Bm                             A             
e|---------------------------------------------------------------------------| 
B|-------5---------------5--------------2--------------2---------------------| 
G|----------6----------------6--------------2---------------2----------------| 
D|-------------6-----------------6-------------2----------------2------------| 
A|----4------------4-----------------0-------------0-------------------------| 
E|---------------------------------------------------------------------------| 
      E                                Fm 
e|---------------------------------------------------------------------------| 
B|---------------------------------------------------------------------------| 
G|--------1----------------1-----------------2---------------2---------------|        
D|------------2----------------2-----------------4---------------4-----------| 
A|----------------2----------------2-----------------4---------------4-------| 
E|----0----------------0----------------2----------------2-------------------| 

I only want you, and us 
I only want you, and us 
I only want you, to trust 
I only want you, and us 
And us, and us 


verse 2 

     Bm                             A             
e|---------------------------------------------------------------------------| 
B|-------5---------------5--------------2--------------2---------------------| 
G|----------6----------------6--------------2---------------2----------------| 
D|-------------6-----------------6-------------2----------------2------------| 
A|----4------------4-----------------0-------------0-------------------------| 
E|---------------------------------------------------------------------------| 
      E 
e|---------------------------------------------------------------------------| 
B|---------------------------------------------------------------------------| 
G|--------1----------------1-----------------1---------------1---------------|        
D|------------2----------------2-----------------2---------------2-----------| 
A|----------------2----------------2-----------------2---------------2-------| 
E|----0----------------0----------------0----------------0-------------------| 


Repeat pattern until last line of Verse: 

I'm waiting for something 
To make me feel something 
But nothing feels nothing 
Like we used to be 
Remember, remember 
When we said forever 
We locked it and we lost the key 
I'm begging, begging, 
Begging you to please don't go 
I don't wanna see you 
Be with someone else 

Don't make me drive at night in Hollywood as evenings go 
      Bm                             A             
e|---------------------------------------------------------------------------| 
B|-------5---------------5--------------2--------------2---------------------| 
G|----------6----------------6--------------2---------------2----------------| 
D|-------------6-----------------6-------------2----------------2------------| 
A|----4------------4-----------------0-------------0-------------------------| 
E|---------------------------------------------------------------------------| 

I don't wanna put what we had on the shelf  
     E 
e|---------------------------------------------------------------------------| 
B|---------------------------------------------------------------------------| 
G|--------1----------------1-------------------------------------------------|        
D|------------2----------------2---------------------------------------------| 
A|----------------2----------------2-----------------------------------------| 
E|----0----------------0----------------0---0--------------------------------| 



Chorus 

     Bm                             A             
e|---------------------------------------------------------------------------| 
B|-------5---------------5--------------2--------------2---------------------| 
G|----------6----------------6--------------2---------------2----------------| 
D|-------------6-----------------6-------------2----------------2------------| 
A|----4------------4-----------------0-------------0-------------------------| 
E|---------------------------------------------------------------------------| 
      E                                Fm 
e|---------------------------------------------------------------------------| 
B|---------------------------------------------------------------------------| 
G|--------1----------------1-----------------2---------------2---------------|        
D|------------2----------------2-----------------4---------------4-----------| 
A|----------------2----------------2-----------------4---------------4-------| 
E|----0----------------0----------------2----------------2-------------------| 

Repeat with lyrics 

I only want you, and us 
I only want you, and us 
I only want you, to trust 
I only want you, and us 
And us, and us 


(Interlude) 

     Bm                             A             
e|---------------------------------------------------------------------------| 
B|-------5---------------5--------------2--------------2---------------------| 
G|----------6----------------6--------------2---------------2----------------| 
D|-------------6-----------------6-------------2----------------2------------| 
A|----4------------4-----------------0-------------0-------------------------| 
E|---------------------------------------------------------------------------| 
      E                                Fm 
e|---------------------------------------------------------------------------| 
B|---------------------------------------------------------------------------| 
G|--------1----------------1-----------------2---------------2---------------|        
D|------------2----------------2-----------------4---------------4-----------|    x2 
A|----------------2----------------2-----------------4---------------4-------| 
E|----0----------------0----------------2----------------2-------------------| 


Bridge 

     Bm                             A             
e|---------------------------------------------------------------------------| 
B|-------5---------------5--------------2--------------2---------------------| 
G|----------6----------------6--------------2---------------2----------------| 
D|-------------6-----------------6-------------2----------------2------------| 
A|----4------------4-----------------0-------------0-------------------------| 
E|---------------------------------------------------------------------------| 
      E                                Fm 
e|---------------------------------------------------------------------------| 
B|---------------------------------------------------------------------------| 
G|--------1----------------1-----------------2---------------2---------------|        
D|------------2----------------2-----------------4---------------4-----------| 
A|----------------2----------------2-----------------4---------------4-------| 
E|----0----------------0----------------2----------------2-------------------| 

Oh, I don't wanna be lonely 
Oh, I just want you to hold me down 
Oh, I don't wanna be lonely 
Oh, I just wanna be alone with you 



Chorus 

     Bm                             A             
e|---------------------------------------------------------------------------| 
B|-------5---------------5--------------2--------------2---------------------| 
G|----------6----------------6--------------2---------------2----------------| 
D|-------------6-----------------6-------------2----------------2------------| 
A|----4------------4-----------------0-------------0-------------------------| 
E|---------------------------------------------------------------------------| 
      E                                Fm 
e|---------------------------------------------------------------------------| 
B|---------------------------------------------------------------------------| 
G|--------1----------------1-----------------2---------------2---------------|        
D|------------2----------------2-----------------4---------------4-----------| 
A|----------------2----------------2-----------------4---------------4-------| 
E|----0----------------0----------------2----------------2-------------------| 

Repeat with lyrics 

I only want you, and us 
I only want you, and us 
I only want you, to trust 
I only want you, and us 
And us, and us 



Outro 

             Bm        A         E        Fm 
e|-----------4---------0---------0--------2----------------------------------| 
B|-----------5---------2---------0--------2----------------------------------| 
G|-----------6---------2---------1--------2----------------------------------| 
D|-----------6---------2---------2--------4----------------------------------| 
A|-----------4---------0---------2--------4----------------------------------| 
E|-----------4---------0---------0--------2----------------------------------| 
             Bm        A         E        Fm 
e|-----------4---------0---------0--------2----------------------------------| 
B|--5p4------5---------2---------0--------2----------------------------------| 
G|-----------6---------2---------1--------2----------------------------------| 
D|-----------6---------2---------2--------4----------------------------------| 
A|-----------4---------0---------2--------4----------------------------------| 
E|-----------4---------0---------0--------2----------------------------------| 



************************************ 

| p  Pull-off 

************************************ 
		  

Full key step upFull key step up
Half key step upHalf key step up
Half key step downHalf key step down
Full key step downFull key step down
hide glossary

See also:

tabs Ira! - Poço de Sensibilidade (Solo - Acustico Mtv) tabs Deep Purple - Smoke On The Water tabs Deep Purple - Smoke on the water (intro) tabs Ira! - Eu Quero Sempre Mais (Com Pitty, intro) tabs Deep Purple - Smoke on the Water (ver. 2) tabs Deep Purple - Knocking At Your Back Door
e-chords

Other versions:

tabs Quinn XCII - U And Us
auto scroll beats size up size down change color hide chords drawings
tab show chords e-chords YouTube Clip e-chords hide all tabs e-chords go to top tab

share