Queens Of The Stone Age

Song For The Deaf

Queens Of The Stone Age

tabs

by  LEANJUNIOR

save to print version add songbook text version e-mail correct tuner
chordsukulelecavacokeyboardtabbassdrumsharmonicaflute Guitar Pro
close

there isn't a video lesson for this song

chords

Song For The Deaf

	  		Track 1-You Think I Ain't Worth A Dollar But I feel Like A Millionaire 
Tuning-C F Bb Eb G C 

Main Riff: 
 C|--------------------------|| 
 G|--------------------------|| 
Eb|-5h7p5--7-7-7--7-7-7--7-7-|| 
Bb|--------7-7-7--7-7-7--7-7-|| 
 F|--------5-5-5--5-5-5--5-5-|| 
 C|--------0-0-0--0-0-0--0-0-|| 

Fill 1: 
 C|--------------------------------|| 
 G|--------------------------------|| 
Eb|--------------7-7-7--7-7-7--7-7-|| 
Bb|---------7-5--7-7-7--7-7-7--7-7-|| 
 F|--7-5-7-------5-5-5--5-5-5--5-5-|| 
 C|--------------0-0-0--0-0-0--0-0-|| 

Chorus Riff: 
 C|------------------------------------|| 
 G|------------------------------------|| 
Eb|------------------------------------|| 
Bb|--7-7-7--5--5-5-5-5-5-5--5-5--------|| 
 F|--7-7-7--5--5-5-5-5-5-5--5-5--------|| 
 C|--5-5-5--3--3-3-3-3-3-3--3-3--------|| 

Chorus 1 Lead: 
 C|--------------------------------------------------|| 
 G|--------------------------15-17-------------------|| 
Eb|---------------------------------12-----14-12~~---|| 
Bb|-------5-7-5------------------------14------------|| 
 F|--5h7---------7-5---------------------------------|| 
 C|--------------------------------------------------|| 

Chorus 2 Lead: 
 C|---------------------------------------------------------------------|| 
 G|-----------------------------------------------------15--12-15-12~~--|| 
Eb|----------------------------------------12-14-12--14-----------------|| 
Bb|-------5-7^~~--5h7p5--------------12h14------------------------------|| 
 F|--5h7-----------------7-7~~------------------------------------------|| 
 C|---------------------------------------------------------------------|| 

Riff 2: 
 C|---------------------------------------|| 
 G|---------------------------------------|| 
Eb|---------------------------------------|| 
Bb|--5h7----------------------------------|| 
 F|------5h7------------------------------|| 
 C|----------5h7--3h5--0--0-0-0-0-0-0--0--|| 

Fill 2: 
 C|-------------------------------|-----------------------|| 
 G|-------------------------------|-----------------------|| 
Eb|-------------------------------|-----------------------|| 
Bb|--12h14------------------------|--12h14p12----12-14^~--|| 
 F|--------12h14------------------|-----------14----------|| 
 C|--------------12h14--10h12--0--|-----------------------|| 

Chorus 3 Lead: 
 C|--------------------------------------------------|| 
 G|-------------------------15-17--------------------|| 
Eb|--^^14-12h14p12~~~~------------14-16--------------|| Pause 
Bb|-------------------------------------14-16-12-14--|| 
 F|--------------------------------------------------|| 
 C|--------------------------------------------------|| 

Final Lead Fill: 
 C|----------------------| 
 G|----------------------| 
Eb|---------12-----15^---| 
Bb|--12h14-----14--------|  
 F|----------------------| 
 C|----------------------| 
 ("Gimme toro, gimme some more") 

Chorus 4 Lead: 
 C|---------------------------------------------------|| 
 G|------------------15^-----15-17--------------------|| 
Eb|--------12----12----------------14-16--------------|| 
Bb|--12h14----14-------------------------14-16-12-14--|| 
 F|---------------------------------------------------|| 
 C|---------------------------------------------------|| 

______________________________________________________________________________ 
Track 2-No One Knows 
Tuning-C F Bb Eb G C 

Intro: 
 C|--------------------------------------------|| 
 G|--8------8------8------8--------------------|| 
Eb|--9------9------9------9--------------------|| 
Bb|--9------9------9------9--------------------|| 
 F|--7------7------7------7--------------------|| 
 C|--------------------------------15/---------|| 

Main Riff: 
 C|------------------------|------------------------------| 
 G|-----10----10--8--------|--10----10--8-----------------| 
Eb|-------------------9----|----------------9-------------| 
Bb|------9----9---9---9----|---9----9---9---9-------------| 
 F|------7----7---7---7----|---7----7---7---7-------------| 
 C|--0---------------------|--------------------15/-------| 

 C|------------------------|------------------------------| 
 G|-----10----10--8--------|--10----10--8-----------------| 
Eb|-------------------9----|----------------9-------------| 
Bb|------9----9---9---9----|---9----9---9---9-------------| 
 F|------7----7---7---7----|---7----7---7---7-------------| 
 C|--0---------------------|--------------------15/-------| 

 C|------------------------|------------------------------| 
 G|-----10----10--8--------|--10----10/12--10-------------| 
Eb|-------------------9----|------------------------------| 
Bb|------9----9---9---9----|---9----9---------------------| 
 F|------7----7---7---7----|---7----7---------------------| 
 C|--0---------------------|--------------------15/-------| 

 C|------------------------|---------------------------------|| 
 G|-----10----10--8--------|--10----10--8-------8------------|| 
Eb|-------------------9----|----------------9---9----<9>-----|| 
Bb|------9----9---9---9----|---9----9---9---9---9----<9>-----|| 
 F|------7----7---7---7----|---7----7---7---7----------------|| 
 C|--0---------------------|---------------------------------|| 

Verse 1: 
 C|--------------------------------------------| 
 G|-----8-------8-------8-------8--10--8-------| 
Eb|-----9-------9-------9-------9---9--9-------| 
Bb|-----9-------9-------9-------9---9--9-------| 
 F|-----7-------7-------7-------7---7--7-------| 
 C|-0-------0-------0-------0------------------| 

 C|----------------------------------------------------------------| 
 G|----------------------------------------------------------------| 
Eb|--8--8--8--8--8--8--8-------12--12--12--12--12--12--12--12------| 
Bb|--9--9--9--9--9--9--9--7h9--13--13--13--13--13--13--13--13------| 
 F|--9--9--9--9--9--9--9--7h9--13--13--13--13--13--13--13--13------| 
 C|--7--7--7--7--7--7--7--7----11--11--11--11--11--11--11--11------| 

 C|------------------------|------------------------------| 
 G|-----10----10--8--------|--10----10--8-----------------| 
Eb|-------------------9----|----------------9-------------| 
Bb|------9----9---9---9----|---9----9---9---9-------------| 
 F|------7----7---7---7----|---7----7---7---7-------------| 
 C|--0---------------------|--------------------15/-------| 

 C|------------------------|---------0-----------|| 
 G|-----10----10--8--------|---8-----4bend-------|| 
Eb|-------------------9----|---------------------|| 
Bb|------9----9---9---9----|---9-----------------|| 
 F|------7----7---7---7----|---7-----------------|| 
 C|--0---------------------|---------------------|| 

Verse 2: 
 C|--------------------------------------------| 
 G|-----8-------8-------8-------8--10--8-------| 
Eb|-----9-------9-------9-------9---9--9-------| 
Bb|-----9-------9-------9-------9---9--9-------| 
 F|-----7-------7-------7-------7---7--7-------| 
 C|-0-------0-------0-------0------------------| 

 C|--------------------------------------------------------------------------| 
 G|-----10------10------10------10-------------------------------------------| 
Eb|--8---8---8---8---8---8---8---8-------12--12--12--12--12--12--12--12------| 
Bb|--------------------------------------13--13--13--13--13--13--13--13------| 
 F|--9---9---9---9---9---9---9---9---9-/-13--13--13--13--13--13--13--13------| 
 C|--7---7---7---7---7---7---7---7---7-/-11--11--11--11--11--11--11--11------| 

 C|------------------------|-----------------------------------| 
 G|-----10----10--8--------|--10----10-------------------------| 
Eb|-------------------9----|-----------------------------------| 
Bb|------9----9---9---9----|---9----9--------------------------| 
 F|------7----7---7---7----|---7----7-----------7--------------| 
 C|--0---------------------|--------------0h5/7h9---9p7p-0-----| 

 C|------------------------|------------------------------| 
 G|-----10----10--8--------|--10----10--8-----------------| 
Eb|-------------------9----|----------------9-------------| 
Bb|------9----9---9---9----|---9----9---9---9-------------| 
 F|------7----7---7---7----|---7----7---7---7-------------| 
 C|--0---------------------|--------------------15/-------| 

 C|----------------------------7----------------------------------------------| 
 G|-----10------10------10--10----10------------------------------------------| 
Eb|--8---8---8---8---8---8---8----8-------12--12--12--12--12--12--12--12------| 
Bb|---------------------------------------13--13--13--13--13--13--13--13------| 
 F|--9---9---9---9---9---9---9----9---9-/-13--13--13--13--13--13--13--13------| 
 C|--7---7---7---7---7---7---7----7---7-/-11--11--11--11--11--11--11--11------| 

 C|------------------------|-----------------------12------| 
 G|-----10----10--8--------|--10----10--8----10b-----------| 
Eb|-------------------9----|--------------------------9~---| 
Bb|------9----9---9---9----|---9----9---9------------------| 
 F|------7----7---7---7----|---7----7---7------------------| 
 C|--0---------------------|--------------------15/--------| 

 C|------------------------|------------------------|| 
 G|-----10----10--8--------|--10----10--8-----------|| 
Eb|-------------------9----|----------------9-------|| 
Bb|------9----9---9---9----|---9----9---9---9-------|| 
 F|------7----7---7---7----|---7----7---7---7-------|| 
 C|--0---------------------|------------------------|| 

Chorus: (x2) 
 C|------------------------------------------------------------------| 
 G|------------------------------------------------------------------| 
Eb|--9--11-12-11---14--12---16--14-----------------------------------| 
Bb|----------------------------------9--7--9--7--9--7--9--7--9--7----| 
 F|--7--9--10--9---12--10---14--12---9--7--9--7--9--7--9--7--9--7----| 
 C|----------------------------------7--7--7--7--7--7--7--7--7--7----| 

 C|-----------------------------------------------------------------| 
 G|-----------------------------------------------------------------| 
Eb|--12-11--9--7---9--11--12-11-------------------------------------| 
Bb|---------------------------------9--7--9--7--9--7--9--7--9--7----| 
 F|--10--9--7--5---7--9---10--9-----9--7--9--7--9--7--9--7--9--7----| 
 C|---------------------------------7--7--7--7--7--7--7--7--7--7----| 

 C|------------------------------------------------------------------| 
 G|------------------------------------------------------------------| 
Eb|--9--11-12-11---14--12---16--14-----------------------------------| 
Bb|----------------------------------9--7--9--7--9--7--9--7--9--7----| 
 F|--7--9--10--9---12--10---14--12---9--7--9--7--9--7--9--7--9--7----| 
 C|----------------------------------7--7--7--7--7--7--7--7--7--7----| 

 C|------------------------|------------------------------| 
 G|-----10----10--8--------|--10----10--8-----------------| 
Eb|-------------------9----|----------------9-------------| 
Bb|------9----9---9---9----|---9----9---9---9-------------| 
 F|------7----7---7---7----|---7----7---7---7-------------| 
 C|--0---------------------|--------------------15/-------| 

 C|------------------------|---------0-----------|| 
 G|-----10----10--8--------|---8-----4bend-------|| 
Eb|-------------------9----|---------------------|| 
Bb|------9----9---9---9----|---9-----------------|| 
 F|------7----7---7---7----|---7-----------------|| 
 C|--0---------------------|---------------------|| 


___________________________________________________________________________ 
Track 3-First It Giveth 
Tuning-C F Bb Eb G C 

Verse 1: 
 C|-----------------------------------------------------------------| 
 G|-----------------------------------------------------------------| 
Eb|-----------------------------------------------------------------| 
Bb|-----------------------------------------------------------------| 
 F|-5-5-5-5-5-5-5-5-6-6-6-6-6-6-6-6---------------------------------| 
 C|---------------------------------5-5-5-5-5-5-5-5-1-1-1-1-1-1-1-1-| 

 C|-----------------------------------------------------------------| 
 G|-----------------------------------------------------------------| 
Eb|-----------------------------------------------------------------| 
Bb|-----------------------------------------------------------------| 
 F|-5-5-5-5-5-5-3h5-6-6-6-6-6-6-5h6-8-8-8-8-8-8-8-8-8-8-8-8-8-8-8-8-| 
 C|-----------------------------------------------------------------| 

 C|-----------------------------------------------------------------| 
 G|-----------------------------------------------------------------| 
Eb|-----------------------------------------------------------------| 
Bb|-----------------------------------------------------------------| 
 F|-5-5-5-5-5-5-3h5-6-6-6-6-6-6-5h6---------------------------------| 
 C|---------------------------------5-5-5-5-5-5-3h5-1-1-1-1-1-1-1-1-| 

 C|-----------------------------------------------------------------| 
 G|-----------------------------------------------------------------| 
Eb|-----------------------------------------------------------------| 
Bb|-----------------------------------------------------------------| 
 F|-5-5-5-5-5-5-3h5-6-6-6-6-6-6-5h6-8-8-8-8-8-8-8-8-----------------| 
 C|-------------------------------------------------5-5-5-5-5-5-5-5-| 

 C|-----------------------------------------------------------------| 
 G|-----------------------------------------------------------------| 
Eb|-----------------------------------------------------------------| 
Bb|-----------------------------------------------------------------| 
 F|-5-5-5-5-5-5-3h5-6-6-6-6-6-6-5h6---------------------------------| 
 C|---------------------------------5-5-5-5-5-5-3h5-1-1-1-1-1-1-1-1-| 

 C|-----------------------------------------------------------------|| 
 G|-----------------------------------------------------------------|| 
Eb|-----------------------------------------------------------------|| 
Bb|-----------------------------------------------------------------|| 
 F|-5-5-5-5-5-5-5-5-6-6-6-6-6-6-6-6---------------------------------|| 
 C|---------------------------------5-5-5-5-5-5-5-5-5-5-5-5-5-5-5-5-|| 

(At this point, a second guitar that is in Standard Tuning comes in) 

Guitar 1. (C Tuning) 
 C|-----------------------------------------------------------------| 
 G|-----------------------------------------------------------------| 
Eb|-----------------------------------------------------------------| 
Bb|-----------------------------------------------------------------| 
 F|-5-5-5-5-5-5-3h5-6-6-6-6-6-6-5h6---------------------------------| 
 C|---------------------------------5-5-5-5-5-5-3h5-1-1-1-1-1-1-1-1-| 

 C|-----------------------------------------------------------------| 
 G|-----------------------------------------------------------------| 
Eb|-----------------------------------------------------------------| 
Bb|-----------------------------------------------------------------| 
 F|-5-5-5-5-5-5-5-5-6-6-6-6-6-6-6-6---------------------------------| 
 C|---------------------------------5-5-5-5-5-5-5-5-5-5-5-5-5-5-5-5-| 

 C|-----------------------------------------------------------------| 
 G|-----------------------------------------------------------------| 
Eb|-----------------------------------------------------------------| 
Bb|-------------------------------------------------7-7-7-8-8-8-7-7-| 
 F|-5-5-5-5-5-5-3h5-6-6-6-6-6-6-5h6-8-8-8-8-8-8-8-8-----------------| 
 C|-----------------------------------------------------------------| 

 C|-----------------------------------------------------------------|| 
 G|-----------------------------------------------------------------|| 
Eb|-----------------------------------------------------------------|| 
Bb|-----------------------------------------------------------------|| 
 F|-5-5-5-5-5-5-5-5-6-6-6-6-6-6-6-6---------------------------------|| 
 C|---------------------------------5-5-5-5-5-5-5-5-5-5-5-----------|| 

Guitar 2. (E Tuning) 
 e|-----------------------------------------------------------------| 
 B|-----------------------------------------------------------------| 
 G|-----------------------------------------------------------------| 
 D|-----------------------------------------------------------------| 
 A|-5-5-5-5-5-5-3h5-6-6-6-6-6-6-5h6---------------------------------| 
 E|---------------------------------5-5-5-5-5-5-3h5-1-1-1-1-1-1-1-1-| 

 e|-----------------------------------------------------------------| 
 B|-----------------------------------------------------------------| 
 G|-----------------------------------------------------------------| 
 D|-----------------------------------------------------------------| 
 A|-5-5-5-5-5-5-5-5-6-6-6-6-6-6-6-6---------------------------------| 
 E|---------------------------------5-5-5-5-5-5-5-5-1-1-1-1-1-1-1-1-| 

 e|-----------------------------------------------------------------| 
 B|-----------------------------------------------------------------| 
 G|-----------------------------------------------------------------| 
 D|-------------------------------------------------7-7-7-8-8-8-7-7-| 
 A|-5-5-5-5-5-5-3h5-6-6-6-6-6-6-5h6-8-8-8-8-8-8-8-8-----------------| 
 E|-----------------------------------------------------------------| 

 e|-----------------------------------------------------------------|| 
 B|-----------------------------------------------------------------|| 
 G|-----------------------------------------------------------------|| 
 D|-----------------------------------------------------------------|| 
 A|-5-5-5-5-5-5-5-5-6-6-6-6-6-6-6-6---------------------------------|| 
 E|---------------------------------5-5-5-5-5-5-5-5-5-5-5-----------|| 


Chorus: 
 C|-----------------------------------------------------------------| 
 G|-----------------------------------------------------------------| 
Eb|-7-7-7-7-7-5-7-7-7-5-7-5-7-5-7-7-7-7-7-7-7-5-7-7-7-5-7-5-7-5-7-7-| 
Bb|-7-7-7-7-7-5-7-7-7-5-7-5-7-5-7-7-7-7-7-7-7-5-7-7-7-5-7-5-7-5-7-7-| 
 F|-5-5-5-5-5-5-5-5-5-5-5-5-5-5-5-5-5-5-5-5-5-5-5-5-5-5-5-5-5-5-5-5-| 
 C|-----------------------------------------------------------------| 

 C|-----------------------------------------------------------------------------|| 
 G|-----------------------------------------------------------------------------|| 
Eb|-10-10-10-10-10-8-10-10-10-8-10-8-10-8-10-10---------------------------------|| 
Bb|-10-10-10-10-10-8-10-10-10-8-10-8-10-8-10-10-8-8-8-8-8-8-8-8-5-5-5-5-5-5-5-5-|| 
 F|-8--8--8--8--8--8-8--8--8--8-8--8-8--8-8--8--8-8-8-8-8-8-8-8-5-5-5-5-5-5-5-5-|| 
 C|---------------------------------------------6-6-6-6-6-6-6-6-3-3-3-3-3-3-3-3-|| 


Acoustic Bridge: 
 C|-----------------------------------------------1-1-1-1---|| 
 G|-7-7-7-7-7-5/7-7---8-8-8-8---5-5-5-5-5-5-5-5---1-1-1-1---|| 
Eb|-7-7-7-7-7-5/7-7---8-8-8-8---6-6-6-6-6-6-6-6---2-2-2-2---|| 
Bb|-7-7-7-7-7-5/7-7---8-8-8-8---7-7-7-7-7-7-7-7---3-3-3-3---|| 
 F|-5-5-5-5-5-3/5-5---6-6-6-6---7-7-7-7-7-7-7-7---3-3-3-3---|| 
 C|-----------------------------5-5-5-5-5-5-5-5---1-1-1-1---|| 


Interlude: 
 C|--------------------------------------------------------------------|| 
 G|--------------------------------------------------------------------|| 
Eb|-14---12h14p12------------------------14---12h14p12---12-/18--------|| 
Bb|------------------14---14h15-12---10--------------------------------|| 
 F|--------------------------------------------------------------------|| 
 C|--------------------------------------------------------------------|| 


Verse 2: 
(Guitar 1 only C Tuning) 
 C|-----------------------------------------------------------------| 
 G|-----------------------------------------------------------------| 
Eb|-----------------------------------------------------------------| 
Bb|-----------------------------------------------------------------| 
 F|-5-5-5-5-5-5-5-5-6-6-6-6-6-6-6-6---------------------------------| 
 C|---------------------------------5-5-5-5-5-5-5-5-1-1-1-1-1-1-1-1-| 

 C|-----------------------------------------------------------------|| 
 G|-----------------------------------------------------------------|| 
Eb|-----------------------------------------------------------------|| 
Bb|-----------------------------------------------------------------|| 
 F|-5-5-5-5-5-5-5-5-6-6-6-6-6-6-6-6---------------------------------|| 
 C|---------------------------------5-5-5-5-5-5-5-5-5-5-5-5-5-5-5-5-|| 

(Now the second guitar comes in again) 

Guitar 1. (C Tuning) 
 C|-----------------------------------------------------------------| 
 G|-----------------------------------------------------------------| 
Eb|-----------------------------------------------------------------| 
Bb|-----------------------------------------------------------------| 
 F|-5-5-5-5-5-5-3h5-6-6-6-6-6-6-5h6---------------------------------| 
 C|---------------------------------5-5-5-5-5-5-3h5-1-1-1-1-1-1-1-1-| 

 C|-----------------------------------------------------------------| 
 G|-----------------------------------------------------------------| 
Eb|-----------------------------------------------------------------| 
Bb|-------------------------------------------------7h8p7--7--------| 
 F|-5-5-5-5-5-5-3h5-6-6-6-6-6-6-5h6-8-8-8-8-8-8-8-8-----------------| 
 C|-----------------------------------------------------------------| 

 C|-----------------------------------------------------------------| 
 G|-----------------------------------------------------------------| 
Eb|-----------------------------------------------------------------| 
Bb|-----------------------------------------------------------------| 
 F|-5-5-5-5-5-5-3h5-6-6-6-6-6-6-5h6-8-8-8-8-8-8-8-8-----------------| 
 C|-------------------------------------------------5-5-5-5-5-5-5-5-| 

 C|-----------------------------------------------------------------|| 
 G|-----------------------------------------------------------------|| 
Eb|-----------------------------------------------------------------|| 
Bb|-----------------------------------------------------------------|| 
 F|-5-5-5-5-5-5-5-5-6-6-6-6-6-6-6-6---------------------------------|| 
 C|---------------------------------5-5-5-5-5-5-5-5-5-5-5-----------|| 

Guitar 2. (E Tuning) 
 e|-----------------------------------------------------------------| 
 B|-----------------------------------------------------------------| 
 G|-----------------------------------------------------------------| 
 D|-----------------------------------------------------------------| 
 A|-5-5-5-5-5-5-3h5-6-6-6-6-6-6-5h6---------------------------------| 
 E|---------------------------------5-5-5-5-5-5-3h5-1-1-1-1-1-1-1-1-| 

 e|-----------------------------------------------------------------| 
 B|-----------------------------------------------------------------| 
 G|-----------------------------------------------------------------| 
 D|-------------------------------------------------7h8p7--7--------| 
 A|-5-5-5-5-5-5-3h5-6-6-6-6-6-6-5h6-8-8-8-8-8-8-8-8-----------------| 
 E|-----------------------------------------------------------------| 

 e|-----------------------------------------------------------------| 
 B|-----------------------------------------------------------------| 
 G|-----------------------------------------------------------------| 
 D|-----------------------------------------------------------------| 
 A|-5-5-5-5-5-5-3h5-6-6-6-6-6-6-5h6-8-8-8-8-8-8-8-8-----------------| 
 E|-------------------------------------------------5-5-5-5-5-5-5-5-| 

 e|-----------------------------------------------------------------|| 
 B|-----------------------------------------------------------------|| 
 G|-----------------------------------------------------------------|| 
 D|-----------------------------------------------------------------|| 
 A|-5-5-5-5-5-5-5-5-6-6-6-6-6-6-6-6-8-8-8-8-8-8-8-8-8-8-8-----------|| 
 E|-----------------------------------------------------------------|| 


Bridge: 
 C|---------------------------------------------| 
 G|--------------------------------11-11-11-11--| 
Eb|-7-7-7-7-7-7-7-7-7-7-7-7-7-7-7--11-11-11-11--| 
Bb|-7-7-7-7-7-7-7-7-7-7-7-7-7-7-7--11-11-11-11--| 
 F|-5-5-5-5-5-5-5-5-5-5-5-5-5-5-5---------------| 
 C|---------------------------------------------| 

 C|-------------------------------------------------| 
 G|-------------------------------------------------| 
Eb|-11-11-11-11-11-11-11-11-11-11-11-11-11-11-11-11-| 
Bb|-11-11-11-11-11-11-11-11-11-11-11-11-11-11-11-11-| 
 F|-9--9--9--9--9--9--9--9--9--9--9--9--9--9--9--9--| 
 C|-------------------------------------------------| 

 C|---------------------------------------------------------------------------------|| 
 G|---------------------------------------------------------------------------------|| 
Eb|---------------------------------------------------------------------------------|| 
Bb|-8-8-8-8-8-8-8-8-8-8-8-8-8-8-8-8-11-11-11-11-11-11-11-11-11-11-11-11-11-11-11-11-|| 
 F|-8-8-8-8-8-8-8-8-8-8-8-8-8-8-8-8-11-11-11-11-11-11-11-11-11-11-11-11-11-11-11-11-|| 
 C|-6-6-6-6-6-6-6-6-6-6-6-6-6-6-6-6-9--9--9--9--9--9--9--9--9--9--9--9--9--9--9--9--|| 


Outro Riff: 
 C|---------------------------------------------------------------------------------|| 
 G|---------------------------------------------------------------------------------|| 
Eb|---------------------------------------------------------------------------------|| 
Bb|-8-8-8-8-8-8-8-8-8-8-8-8-8-8-8-8-11-11-11-11-11-11-11-11-11-11-11-11-11-11-11-11-|| 
 F|-8-8-8-8-8-8-8-8-8-8-8-8-8-8-8-8-11-11-11-11-11-11-11-11-11-11-11-11-11-11-11-11-|| 
 C|-6-6-6-6-6-6-6-6-6-6-6-6-6-6-6-6-9--9--9--9--9--9--9--9--9--9--9--9--9--9--9--9--|| 


Acoustic Outro: 
 C|-----------------------------|| 
 G|-7-7-7-7-7-5/7-7---8-8-8-8---|| 
Eb|-7-7-7-7-7-5/7-7---8-8-8-8---|| 
Bb|-7-7-7-7-7-5/7-7---8-8-8-8---|| 
 F|-5-5-5-5-5-3/5-5---6-6-6-6---|| 
 C|-----------------------------|| 





______________________________________________________________________________ 
Track 4-Song For The Dead 
Tuning-C F Bb Eb G C 

Intro Riff: 
 C|-----------------------------------|| 
 G|-----------------------------------|| 
Eb|-----------------------------------|| 
Bb|-----------------------------------|| 
 F|-----------------------------------|| 
 C|-0-<5>-0-0-<5>-0-0-0-<5>-0-0-<5>-0-|| 


Transition: 
 C|-----------------| 
 G|-----------------| 
Eb|-----------------| 
Bb|-2---2---2---2---| 
 F|-2---2---2---2---| 
 C|-0---0---0---0---| 


Main Riff: 
 C|------------------------------------|| 
 G|------------------------------------|| 
Eb|-----9--------10-------9------------|| 
Bb|-----9--------9--------9-----(fill)-|| 
 F|-----7--------7--------7------------|| 
 C|-0-0------0-0------0-0--------------|| 


Verse 1 Fills: 
 C|---------|----------|---------------|------------| 
 G|-/12-----|-br12-----|---------------|------------| 
Eb|-----12v-|------12v-|-----7--9p7----|------------| 
Bb|---------|----------|-7h9--------7--|------------| 
 F|---------|----------|---------------|------------| 
 C|---------|----------|---------------|-5-/7-/10b\-| 

 C|---------|---------------|------15-|-13p10-----------------| 
 G|-/12-----|---------------|-12------|-------11--------------| 
Eb|-----12v-|-----7--9p7----|-14b-----|----------13-----------| 
Bb|---------|-7h9--------7--|---------|---------------12------| 
 F|---------|---------------|---------|------------------14---| 
 C|---------|---------------|---------|-----------------------| 

 C|---------------|---------------------|-------------|---------|| 
 G|---9h11-9-11b--|-15-12-11-12-11------|-------------|---------|| 
Eb|-7-------------|----------------12v--|-------------|---------|| 
Bb|---------------|---------------------|-------------|---------|| 
 F|---------------|---------------------|-------------|(w/slide)|| 
 C|---------------|---------------------|-3-/5-/7-/12-|-12///---|| 


Verse 2 Fills: 
 C|-------------| 
 G|-------------| 
Eb|-(weird------| 
Bb|-distortion)-| 
 F|-------------| 
 C|-12/13-12/13-| 

 C|---------|-12\7-p0-9b--|-15p12----14------|------------------------|| 
 G|-/12-----|-------------|-------13---------|-12v--11h12-11----------|| 
Eb|-----12v-|-------------|-------------14b--|---------------12-------|| 
Bb|---------|-------------|------------------|------------------14-12-|| 
 F|---------|-------------|------------------|------------------------|| 
 C|---------|-------------|------------------|------------------------|| 


Verse 3 Fills: 
 C|-------|-------15----------|------|-------------------| 
 G|-------|----------14----15-|------|-------------------| 
Eb|-------|-------------16----|------|-------------------| 
Bb|-------|-12-14-------------|------|-------------------| 
 F|(slide)|-------------------|------|-(pause for drums)-| 
 C|-10\\--|-------------------|-10b--|-------------------| 

 C|---------|------------------|-------------------------|--------------------|| 
 G|-14b16b--|------------------|-12h15p12h14p12h14-------|--------------------|| 
Eb|---------|------------------|-------------------12----|--------------------|| 
Bb|---------|------------------|----------------------14-|--------------------|| 
 F|---------|-(pause for bass)-|-------------------------|--------------------|| 
 C|---------|------------------|-------------------------|-/12-12-12-12-12-12-|| 


Chorus Riff: 
 C|---------------------------------------------------|| 
 G|---------------------------------------------------|| 
Eb|-----9--------10\------------------7-7-7-7-7-7-7-7-|| 
Bb|-----9--------9\---5-5-5-5-5-5-5-5-7-7-7-7-7-7-7-7-|| 
 F|-----7--------7\---5-5-5-5-5-5-5-5-5-5-5-5-5-5-5-5-|| 
 C|-0-0------0-0------3-3-3-3-3-3-3-3-----------------|| 

Outro Riff: 
 C|--------------------------------------------------------------| 
 G|--------------------------------------------------------------| 
Eb|--------------------------------------------------------------| 
Bb|--------------------------------------------------------------| 
 F|--------------------------------------------------------------| 
 C|-0-0-<5>-0-<5>--0-0-<5>-0-<5>---0-0-<5>-0-<5>--0-0-<5>-0-<5>--| 

 C|-----------------------------------------------------------------------------|| 
 G|-----------------------------------------------------------------------------|| 
Eb|-----------------------------------------------------------------------------|| 
Bb|----------------------------------------------------------------------------2|| 
 F|----------------------------------------------------------------------------2|| 
 C|0-0-<5>-0-<5>-0-<5>-0-<5>-0-<5>-0-<5>-0-<5>-0-<5>-0-<5>-0-<5>-0-<5>-0-<5>-0-0|| 




______________________________________________________________________________ 
Track 5-The Sky Is Falling 
Tuning- eb Bb Gb Db Ab Eb 

Intro: 
 eb|----------------------|-----------------|-----------------------| 
 Bb|----------------------|-----------------|-----------------------| 
 Gb|----------------------|-----------------|-----------------------| 
 Db|----------------------|-----------------|-----------------------| 
 Ab|--7~--9-4--5-4--5-2~--|--7~--9-4--5-4~--|--7~--9-4--5-4--5--7~--| 
 Eb|----------------------|-----------------|-----------------------| 

 eb|-first time---------|-second time---------------------------|| 
 Bb|--------------------|---------------------------------------|| 
 Gb|-------------6--6^--|---------------------------------------|| 
 Db|--------------------|----------2-4-5-5-5-5-5-5-5-5-5-5-5-5--|| 
 Ab|--5-4-2~--2--4--4^--|--5-4-2~--2-4-5-5-5-5-5-5-5-5-5-5-5-5--|| 
 Eb|--------------------|---------------------------------------|| 


Riff 1: 
 eb|----------4x-|--------------------------------------------------| 
 Bb|-------------|--------------------------------------------------| 
 Gb|-------------|--------------------------------------------------| 
 Db|--2-2-2-2-2--|--------------------------4--4-4-4-4--------------| 
 Ab|--2-2-2-4-2--|--4--4-4-4-4--5--5-5-5-5--------------5--5-5-5-5--| 
 Eb|--0-0-0-0-0--|--3--3-3-3-3--3--3-3-3-3--3--3-3-3-3--3--3-3-3-3--| 

 eb|---------------|---------------|---------------|---------------|| 
 Bb|---------------|---------------|---------------|---------------|| 
 Gb|---------------|---------------|---------------|---------------|| 
 Db|---------------|---------------|---------------|---------------|| 
 Ab|--7-7-7-7-7-7--|--7-7-7-7-7-7--|--5-5-5-5-5-5--|--9-9-9-9-9-9--|| 
 Eb|--5-5-5-5-5-5--|--4-4-4-4-4-4--|--3-3-3-3-3-3--|--7-7-7-7-7-7--|| 
   "For so long..." 


Riff 2: 
 eb|----------4x-|-------------|| 
 Bb|-------------|-------------|| 
 Gb|-------------|-------------|| 
 Db|--2-2-2-2-2--|--2-2-2-2-2--|| 
 Ab|--2-2-2-4-2--|--2-2-2-4-2--|| 
 Eb|--0-0-0-0-0--|--3-3-3-3-3--|| 
    "Close your eyes and see..." 



Intro Riff w/ second ending 


Riff 1: 
 eb|----------4x-|--------------------------------------------------| 
 Bb|-------------|--------------------------------------------------| 
 Gb|-------------|--------------------------------------------------| 
 Db|--2-2-2-2-2--|--------------------------4--4-4-4-4--------------| 
 Ab|--2-2-2-4-2--|--4--4-4-4-4--5--5-5-5-5--------------5--5-5-5-5--| 
 Eb|--0-0-0-0-0--|--3--3-3-3-3--3--3-3-3-3--3--3-3-3-3--3--3-3-3-3--| 

 eb|---------------|---------------|---------------|---------------| 
 Bb|---------------|---------------|---------------|---------------| 
 Gb|---------------|---------------|---------------|---------------| 
 Db|---------------|---------------|---------------|---------------| 
 Ab|--7-7-7-7-7-7--|--7-7-7-7-7-7--|--5-5-5-5-5-5--|--9-9-9-9-9-9--| 
 Eb|--5-5-5-5-5-5--|--4-4-4-4-4-4--|--3-3-3-3-3-3--|--7-7-7-7-7-7--| 
    "For so long..." 

 eb|---------------------|---------------------|---------------------| 
 Bb|---------------------|---------------------|---------------------| 
 Gb|---------------------|---------------------|---------------------| 
 Db|---------------------|---------------------|---------------------| 
 Ab|--10-10-10-10-10-10--|--14-14-14-14-14-14--|--12-12-12-12-12-12--| 
 Eb|--8--8--8--8--8--8---|--12-12-12-12-12-12--|--10-10-10-10-10-10--| 

 eb|---------------------| 
 Bb|---------------------| 
 Gb|---------------------| 
 Db|---------------------| 
 Ab|--10-10-10-10-10-10--| 
 Eb|--8--8--8--8--8--8---| 
    "Now to remind..." 

 eb|---------------|---------------|---------------| 
 Bb|---------------|---------------|---------------| 
 Gb|---------------|---------------|---------------| 
 Db|---------------|---------------|---------------| 
 Ab|--4-4-4-4-4-4--|--5-5-5-5-5-5--|--7-7-7-7-7-7--| 
 Eb|--2-2-2-2-2-2--|--3-3-3-3-3-3--|--8-8-8-8-8-8--| 
   "Drained my life so low..." 

 eb|------------------------------------|| 
 Bb|------------------------------------|| 
 Gb|------------------------------------|| 
 Db|------------------------------------|| 
 Ab|----4-4------4-4------4-4------4-4--|| 
 Eb|--0-2-2----0-2-2----0-2-2----0-2-2--|| 
   "That has drained..." 


"Close your eyes and see..." 
Then played an octave HIGHER 


Solo: 
 eb|-------------------------------------------------------------------| 
 Bb|-------------------------------------------------------------------| 
 Gb|-------------------------------------------------------------------| 
 Db|----------16-17--------16h17p16----16/17-17/19~--17h19p17p16-------| 
 Ab|--17/19~---------19~------------19----------------------------18~--| 
 Eb|-------------------------------------------------------------------| 

 eb|--------------------------------------------------------------------| 
 Bb|--------------------------------------17-15\--7~--7h8p7-------------| 
 Gb|---------------------------14/16-16~---------------------8-(muted)--| 
 Db|-------------16-16/17/19~-------------------------------------------| 
 Ab|--18/19-19~---------------------------------------------------------| 
 Eb|--------------------------------------------------------------------| 

 eb|---------------------------------------------------------------------| 
 Bb|---------------------------------------------------------------------| 
 Gb|---------------------------------------------------------------------| 
 Db|--16h17p16--19~-19/21~--16h17p16-----16h17p16-----19--17/19/21--16~--| 
 Ab|----------------------------------19---------------------------------| 
 Eb|----------------------------------------------19~--------------------| 

 eb|-------------------|---------------------------------------------------|| 
 Bb|-------------------|---------------------------------------------------|| 
 Gb|-------------------|----------------------------------------------18---|| 
 Db|-------------------|--------------17~-19~--19-19-19^-19^-19^-19^-------|| 
 Ab|--16h17p16-14/16~--|--17/19~--21~--------------------------------------|| 
 Eb|-------------------|---------------------------------------------------|| 
      "Close your eyes and see..." 


Ending: 
 eb|-------------|| 
 Bb|-------------|| 
 Gb|-------------|| 
 Db|--2-2-2-2-2--|| 
 Ab|--2-2-2-4-2--|| 
 Eb|--3-3-3-3-3--|| 





______________________________________________________________________________ 
Track 6-Six Shooter 
Tuning-Standard 

Verse: 
 e|-------------------------| 
 B|-------------------------| 
 G|-1-1-2-4-2-1--7-7--12-12-| 
 D|-------------------------| 
 A|-------------------------| 
 E|-------------------------| 

 e|-----------------------|| 
 B|-------------------8-8-|| 
 G|-6--6-6-4-6-6--7-7-6-6-|| 
 D|-6--6-7-6-7-6--6-6-5-5-|| 
 A|-4--4-4-4-4-4--5-5-5-5-|| 
 E|-----------------------|| 


Verse Lead: 
 e|-----------------------16\15~----| 
 B|---------15~----13~--------------| 
 G|-14~~----------------------------| 
 D|---------------------------------| 
 A|---------------------------------| 
 E|---------------------------------| 

 e|-------------13~---------15~---------|| 
 B|-----12~-15~-----13~-14~-----12~-15~-|| 
 G|-13~---------------------------------|| 
 D|-------------------------------------|| 
 A|-------------------------------------|| 
 E|-------------------------------------|| 


Chorus: ("Shoot, shoot, shoot") 
 e|-----------------------------------------|| 
 B|-----------------------------------------|| 
 G|-6-6--7-7--9-9-10-11-12---15-14-15-14-15-|| 
 D|-6-6--6-6--9-9-10-11-11------------------|| 
 A|-4-4--5-5--7-7--8--9-10--0---------------|| 
 E|-----------------------------------------|| 





______________________________________________________________________________ 
Track 7-Hanging Tree 
Tuning-Standard 
There's a slide guitar in there but I'm not sure what the tabs for it are yet. 

Acoustic Guitar. 
 e|---------------------|| 
 B|---------------------|| 
 G|---------------------|| 
 D|-7---7-7---7-7---7---|| (x8) 
 A|-x---x-x---x-x---x---|| 
 E|-5---5-5---5-5---5---|| 

Verse: 
Main Guitar. 
 e|--------------------------------------------------------------------------------| 
 B|--------------------------------------------------------------------------------| 
 G|--------------------------------------------------------------------------------| 
 D|--------------------------------------------------------------------------------| 
 A|--------------------------------------------------------------------------------| 
 E|-5---5-5---5-5---5---5---5-5---5-5---5---5---5-5---5-5---5---5---5-5---5-5---5--| 

 e|-----------------------------------------------------------------------------|| 
 B|-----------------------------------------------------------------------------|| 
 G|-----------------------------------------------------------------------------|| 
 D|-----------------------------------------------------------------------------||(x2) 
 A|-----------------------------------------------------------------------------|| 
 E|1---1-1---1-1---1---1---1-1---1-1---1---0---0-0---0-0---0--/7---7-7---7-7---7|| 

Acoustic Guitar. 
 e|--------------------------------------------------------------------------------| 
 B|--------------------------------------------------------------------------------| 
 G|--------------------------------------------------------------------------------| 
 D|-7---7-7---7-7---7---7---7-7---7-7---7---7---7-7---7-7---7---7---7-7---7-7---7--| 
 A|-x---x-x---x-x---x---x---x-x---x-x---x---x---x-x---x-x---x---x---x-x---x-x---x--| 
 E|-5---5-5---5-5---5---5---5-5---5-5---5---5---5-5---5-5---5---5---5-5---5-5---5--| 

 e|-----------------------------------------------------------------------------|| 
 B|-----------------------------------------------------------------------------|| 
 G|-----------------------------------------------------------------------------|| 
 D|3---3-3---3-3---3---3---3-3---3-3---3---2---2-2---2-2---2--/9---9-9---9-9---9||(x2) 
 A|x---x-x---x-x---x---x---x-x---x-x---x---x---x-x---x-x---x---x---x-x---x-x---x|| 
 E|1---1-1---1-1---1---1---1-1---1-1---1---0---0-0---0-0---0--/7---7-7---7-7---7|| 

Fourth Guitar. 
(play this very quietly) 
 e|---------------------|| 
 B|---------------------|| 
 G|---------------------|| 
 D|---------------------|| (x16) 
 A|-3p0-0-3p0-0-3p0-5---|| 
 E|---------------------|| 


Pre-Chorus 1: 
Main Guitar. 
 e|-----------------------------------------|| 
 B|-----------------------------------------|| 
 G|-----------------------------------------|| 
 D|-----------------------------------------|| 
 A|-----------------------------------------|| 
 E|-5---5-5---5-5---5---5---5-5---5-5---5---|| 

Acoustic Guitar. 
 e|-----------------------------------------|| 
 B|-----------------------------------------|| 
 G|-----------------------------------------|| 
 D|-7---7-7---7-7---7---7---7-7---7-7---7---|| 
 A|-x---x-x---x-x---x---x---x-x---x-x---x---|| 
 E|-5---5-5---5-5---5---5---5-5---5-5---5---|| 

Chorus: 
Main Guitar. 
 e|-----------------------------------------------------------------------------------| 
 B|-----------------------------------------------------------------------------------| 
 G|-----------------------------------------------------------------------------------| 
 D|-----------------------------------------------------------------------------------|(x4) 
 A|-----------------------------------------------------------------------------------| 
 E|8---8-8---8-8---8---7---7-7---7-7---7---10---10-10---10-10---10---9---9-9---9-9---9| 

 e|---------------------------------------------------------------------------------|| 
 B|---------------------------------------------------------------------------------|| 
 G|---------------------------------------------------------------------------------|| 
 D|---------------------------------------------------------------------------------||(x1) 
 A|---------------------------------------------------------------------------------|| 
 E|-8---8-8---8-8---8---8---8-8---8-8---8---7---7-7---7-7---7---7---7-7---7-7---7---|| 

Acoustic Guitar. 
 e|-----------------------------------------------------------------------------------| 
 B|-----------------------------------------------------------------------------------| 
 G|-----------------------------------------------------------------------------------| 
 D|7---7-7---7-7---7---6---6-6---6-6---6---9----9--9----9--9----9----7---7-7---7-7---7|(x4) 
 A|x---x-x---x-x---x---x---x-x---x-x---x---x----x--x----x--x----x----x---x-x---x-x---x| 
 E|8---8-8---8-8---8---7---7-7---7-7---7---10---10-10---10-10---10---9---9-9---9-9---9| 

 e|---------------------------------------------------------------------------------|| 
 B|---------------------------------------------------------------------------------|| 
 G|---------------------------------------------------------------------------------|| 
 D|-7---7-7---7-7---7---7---7-7---7-7---7-------------------------------------------||(x1) 
 A|-x---x-x---x-x---x---x---x-x---x-x---x---6---6-6---6-6---6---6---6-6---6-6---6---|| 
 E|-8---8-8---8-8---8---8---8-8---8-8---8---7---7-7---7-7---7---7---7-7---7-7---7---|| 

Interlude 1: 
Main Guitar. 
 e|---------------------|| 
 B|---------------------|| 
 G|---Rest--------------|| 
 D|---------------------|| 
 A|---------------------|| 
 E|---------------------|| 

Acoustic Guitar. 
 e|---------------------|| 
 B|---------------------|| 
 G|---------------------|| 
 D|-7---7-7---7-7---7---|| (x4) 
 A|-x---x-x---x-x---x---|| 
 E|-5---5-5---5-5---5---|| 

Pre-Chorus 2: 
Main Guitar. 
 e|-----------------------------------------|| 
 B|-----------------------------------------|| 
 G|-----------------------------------------|| 
 D|-----------------------------------------|| 
 A|-----------------------------------------|| 
 E|-5---5-5---5-5---5---5---5-5---5-5---5---|| 

Acoustic Guitar. 
 e|-----------------------------------------|| 
 B|-----------------------------------------|| 
 G|-----------------------------------------|| 
 D|-7---7-7---7-7---7---7---7-7---7-7---7---|| 
 A|-x---x-x---x-x---x---x---x-x---x-x---x---|| 
 E|-5---5-5---5-5---5---5---5-5---5-5---5---|| 

Interlude 2: 
Main Guitar. 
 e|---------------------|| 
 B|---------------------|| 
 G|---Rest--------------|| 
 D|---------------------|| 
 A|---------------------|| 
 E|---------------------|| 

Acoustic Guitar. 
 e|---------------------|| 
 B|---------------------|| 
 G|---------------------|| 
 D|-7---7-7---7-7---7---|| (x4) 
 A|-x---x-x---x-x---x---|| 
 E|-5---5-5---5-5---5---|| 

Bridge: 
Main Guitar. 
 e|---------------------| 
 B|---------------------| 
 G|---------------------| 
 D|---------------------| (x8) 
 A|-12----0-----3---5---| 
 E|---------------------| 

 e|-----------------------------------------|| 
 B|-----------------------------------------|| 
 G|-----------------------------------------|| 
 D|-----------------------------------------|| (x1) 
 A|-----------------------------------------|| 
 E|-5---5-5---5-5---5---5---5-5---5-5---5---|| 

Acoustic Guitar. 
 e|---------------------| 
 B|---------------------| 
 G|---------------------| 
 D|-7-----7-----x---x---| (x8) 
 A|-x-----x-----3---5---| 
 E|-x-----5-----x---x---| 

 e|-----------------------------------------| 
 B|-----------------------------------------| 
 G|-----------------------------------------| 
 D|-7---7-7---7-7---7---7---7-7---7-7---7---| (x1) 
 A|-x---x-x---x-x---x---x---x-x---x-x---x---| 
 E|-5---5-5---5-5---5---5---5-5---5-5---5---| 

Outro: 
Main Guitar. 
 e|---------------------|| 
 B|---------------------|| 
 G|---------------------|| 
 D|---------------------|| (x4) 
 A|---------------------|| 
 E|-5---5-5---5-5---5---|| 

Acoustic Guitar. 
 e|---------------------|| 
 B|---------------------|| 
 G|---------------------|| 
 D|-7---7-7---7-7---7---|| (x4) 
 A|-x---x-x---x-x---x---|| 
 E|-5---5-5---5-5---5---|| 

______________________________________________________________________________ 
Track 8-Go With The Flow 
Tuning-C G Eb Bb F C 

Rhythm Guitar. 
Main Riff: 
 C|---------------------------------------------------------------|| 
 G|---------------------------------------------------------------|| 
Eb|-----------------------------9-9-9-9-9-9-9-9--6-6-6-6-6-6-6-6--|| 
Bb|--6-6-6-6-6-6-6-6-6-6-6-6-6--9-9-9-9-9-9-9-9--6-6-6-6-6-6-6-6--|| 
 F|--6-6-6-6-6-6-6-6-6-6-6-6-6--7-7-7-7-7-7-7-7--4-4-4-4-4-4-4-4--|| 
 C|--4-4-4-4-4-4-4-4-4-4-4-4-4------------------------------------|| 

Chorus Riff: 
 C|------------------------------------------------------------------|| 
 G|------------------------------------------------------------------|| 
Eb|--9-9-9-9-9-9-9-9-11-11-11-11-11-11-11-11-------------------------|| 
Bb|--9-9-9-9-9-9-9-9-11-11-11-11-11-11-11-11--6-6-6-6-6-6-6-6-6-6-6--|| 
 F|--7-7-7-7-7-7-7-7--9--9--9--9--9--9--9--9--6-6-6-6-6-6-6-6-6-6-6--|| 
 C|-------------------------------------------4-4-4-4-4-4-4-4-4-4-4--|| 

Outro: 
 C|--------------------------------------------------------------------|| 
 G|--------------------------------------------------------------------|| 
Eb|--9-9-9-9-9-9-9-9-11-11-11-11-11-11-11-11--13-13-13-13-13-13-13-13--|| 
Bb|--9-9-9-9-9-9-9-9-11-11-11-11-11-11-11-11--13-13-13-13-13-13-13-13--|| 
 F|--7-7-7-7-7-7-7-7--9--9--9--9--9--9--9--9--11-11-11-11-11-11-11-11--|| 
 C|--------------------------------------------------------------------|| 

Lead Guitar. 
Intro Lead: 
 C|--------18-16----16-----------------------| 
 G|--16-19-------------16----16-17-19-17-16--| 
Eb|------------------------------------------| 
Bb|------------------------------------------| 
 F|------------------------------------------| 
 C|------------------------------------------| 

 C|--------18-18----16---22b--|| 
 G|--16-19--------------------|| 
Eb|---------------------------|| 
Bb|---------------------------|| 
 F|---------------------------|| 
 C|---------------------------|| 

 "She said "I'll throw myself away" 
Lead: 
 C|-------------------|| 
 G|--16-17-19--17-16--|| 
Eb|-------------------|| 
Bb|-------------------|| 
 F|-------------------|| 
 C|-------------------|| 

 "I can't make you hang around" 
Lead: 
 C|--19---------19--|| 
 G|-------16--------|| 
Eb|-----------------|| 
Bb|-----------------|| 
 F|-----------------|| 
 C|-----------------|| 
 "Outside the frame, is what we're leaving out" 
Lead: 
 C|--17---14---16--|| 
 G|----------------|| 
Eb|----------------|| 
Bb|----------------|| 
 F|----------------|| 
 C|----------------|| 

 Chorus Lead: (3x) 
 C|--16----14--------|| 
 G|--------------16--|| 
Eb|------------------|| 
Bb|------------------|| 
 F|------------------|| 
 C|------------------|| 


 "Do you believe it in your head?" 
Lead: 
 C|--16----14----20--|| 
 G|------------------|| 
Eb|------------------|| 
Bb|------------------|| 
 F|------------------|| 
 C|------------------|| 

 "It's so safe to play along" 
Lead: 
 C|--13-16-13-16-13--12---11---9--| 
 G|-------------------------------| 
Eb|-------------------------------| 
Bb|-------------------------------| 
 F|-------------------------------| 
 C|-------------------------------| 

 "With something sweet to throw away" 
Lead: 
 C|--19--------16---\\\----------------------------|| 
 G|-------16-------------12-14b--12----------------|| 
Eb|---------------------------------13-11----------|| 
Bb|---------------------------------------13-------|| 
 F|------------------------------------------9-11--|| 
 C|------------------------------------------------|| 

 "But I want something good to die for" 
Lead: 
 C|------------|| 
 G|------------|| 
Eb|--15----13--|| 
Bb|------------|| 
 F|------------|| 
 C|------------|| 

 "I want a new mistake, lose is more than hesitate" 
Lead: 
 C|--19----18--|| 
 G|------------|| 
Eb|------------||  
Bb|------------||  
 F|------------|| 
 C|------------|| 

 "Do you believe it in your head?" 

Chorus Lead: (3x) 
 C|--16----14--------|| 
 G|--------------16--|| 
Eb|------------------|| 
Bb|------------------|| 
 F|------------------|| 
 C|------------------|| 

Lead: 
 C|--16----14----20--|| 
 G|------------------|| 
Eb|------------------|| 
Bb|------------------|| 
 F|------------------|| 
 C|------------------|| 

"Do you believe it in your head?" 

Outro Lead: 
 C|--19--21--20--|| 
 G|--------------|| 
Eb|--------------|| 
Bb|--------------|| 
 F|--------------|| 
 C|--------------|| 


Final Lead: 
 C|--19--21--22b--|| 
 G|---------------|| 
Eb|---------------|| 
Bb|---------------|| 
 F|---------------|| 
 C|---------------|| 
______________________________________________________________________________ 
Track 9-Gonna Leave You 
Tuning-C G Eb Bb F C 

Intro: 
 C|---------------------------------------------------| 
 G|-------14r-----------------------------------------| 
Eb|-11-12-----11h-12-11h-12---------------------------| 
Bb|------------------------11r------------------------| 
 F|-----------------------------13-11h10-10-11--------| 
 C|--------------------------------------------11-10r-| 

 C|------------------------------------------------------------|| 
 G|-------14r--------------------------------------------------|| 
Eb|-11-12-----11h-12-11h-12------15-14r--15-12r--15-14r-15-12r-|| 
Bb|------------------------11r---------------------------------|| 
 F|------------------------------------------------------------|| 
 C|------------------------------------------------------------|| 

Verse: 
 C|-------------------------------------------| 
 G|-------------------------------------------| 
Eb|-8-8-8-8-8-8-8-8---11-11-11-11-11-11-11-11-| 
Bb|-8-8-8-8-8-8-8-8---11-11-11-11-11-11-11-11-| 
 F|-6-6-6-6-6-6-6-6---9--9--9--9--9--9--9--9--| 
 C|-------------------------------------------| 

 C|----------------------------------| 
 G|----------------------------------| 
Eb|-8-8-8-8-8-8-8-8--7-7-7-7-7-7-7-7-| 
Bb|-8-8-8-8-8-8-8-8--7-7-7-7-7-7-7-7-| 
 F|-6-6-6-6-6-6-6-6--5-5-5-5-5-5-5-5-| 
 C|----------------------------------| 

 C|-------------------------------------------| 
 G|-------------------------------------------| 
Eb|-8-8-8-8-8-8-8-8---11-11-11-11-11-11-11-11-| 
Bb|-8-8-8-8-8-8-8-8---11-11-11-11-11-11-11-11-| 
 F|-6-6-6-6-6-6-6-6---9--9--9--9--9--9--9--9--| 
 C|-------------------------------------------| 

 C|---------------------------------|| 
 G|---------------------------------|| 
Eb|-8-8-8-8-8-8-8-8-8-8-8-8-8-8-8-8-|| 
Bb|-8-8-8-8-8-8-8-8-8-8-8-8-8-8-8-8-|| 
 F|-6-6-6-6-6-6-6-6-6-6-6-6-6-6-6-6-|| 
 C|---------------------------------|| 

Bridge: 
 C|----------------------------------| 
 G|----------------------------------| 
Eb|-4-4-4-4-4-4-4-4--3-3-3-3-3-3-3-3-| 
Bb|-4-4-4-4-4-4-4-4--3-3-3-3-3-3-3-3-| (x3) 
 F|-2-2-2-2-2-2-2-2--1-1-1-1-1-1-1-1-| 
 C|----------------------------------| 

 C|----------------------------------|| 
 G|----------------------------------|| 
Eb|-4-4-4-4-4-4-4-4--6-6-6-6-6-6-6-6-|| 
Bb|-4-4-4-4-4-4-4-4--6-6-6-6-6-6-6-6-|| (x1) 
 F|-2-2-2-2-2-2-2-2--4-4-4-4-4-4-4-4-|| 
 C|----------------------------------|| 

Chorus: 
 C|-------------------------------------------| 
 G|-------------------------------------------| 
Eb|-8-8-8-8-8-8-8-8---11-11-11-11-11-11-11-11-| 
Bb|-8-8-8-8-8-8-8-8---11-11-11-11-11-11-11-11-| (x2) 
 F|-6-6-6-6-6-6-6-6----9--9--9--9--9--9--9--9-| 
 C|-------------------------------------------| 

 C|----------------------------------|| 
 G|----------------------------------|| 
Eb|-4-4-4-4-4-4-4-4--3-3-3-3-3-3-3-3-||  
Bb|-4-4-4-4-4-4-4-4--3-3-3-3-3-3-3-3-|| 
 F|-2-2-2-2-2-2-2-2--1-1-1-1-1-1-1-1-|| 
 C|----------------------------------|| 

Ending: 
 C|-------------------------------------------| 
 G|-------------------------------------------| 
Eb|-8-8-8-8-8-8-8-8---11-11-11-11-11-11-11-11-| 
Bb|-8-8-8-8-8-8-8-8---11-11-11-11-11-11-11-11-| 
 F|-6-6-6-6-6-6-6-6----9--9--9--9--9--9--9--9-| 
 C|-------------------------------------------| 

 C|--------------------------------------|| 
 G|--------------------------------------|| 
Eb|-4-4-4-4-4-4-4-4--6-6-6-6-6-6-6-6--8r-|| 
Bb|-4-4-4-4-4-4-4-4--6-6-6-6-6-6-6-6--8r-|| 
 F|-2-2-2-2-2-2-2-2--4-4-4-4-4-4-4-4--6r-|| 
 C|--------------------------------------|| 

______________________________________________________________________________ 
Track 10-Do It Again 
Tuning-C G Eb Bb F C 

Main Riff: 
 C|-----------------------------------------------------------------|| 
 G|-----------------------------------------12----------------------|| 
Eb|-----------------------------------------14 (b)------------------|| 
Bb|----14----14--14-----14--14--------------------------------------|| 
 F|----14----14--14-----14--14--------------------------------------|| 
 C|----12----12--12-----12--12--------------------------------------|| 

Chorus: 
 C|-----------------------------------------------------------|| 
 G|-----------------------------------------------------------|| 
Eb|-------------------------------------------------7-------7-|| 
Bb|-------7--------9-------10--------12-----2-------7-------7-|| 
 F|-------7--------9-------10--------12-----2-------9-------9-|| 
 C|--0(h)-5---0(h)-7---0(h)-8---0(h)-10-----0---0-------0-----|| 

Third Riff: 
 C|-----------------------------------------------------------------|| 
 G|-----------------------------------------------------------------|| 
Eb|-----------------------------------------------------------------|| 
Bb|------10---10----------9---9----------5----7--5-----2----2--2----|| (x2) 
 F|------10---10----------9---9----------5----7--5-----2----2--2----|| 
 C|-0(h)--8----8-----0(h)-7---7-----0(h)-3----5--3-----0----0--0----|| 

______________________________________________________________________________ 
Track 11-God Is In The Radio 
Tuning-Standard 

Intro: 
 e|--------------|| 
 B|--------------|| 
 G|--------------|| 
 D|--------5-----|| 
 A|-5h7----------|| 
 E|-----5-----6--|| 

Main Riff: 
 e|--------------------------------------------|| 
 B|--------------------------------------------|| 
 G|--------------------------------------------|| 
 D|-----7-----7-----7-----7-----7--------5-----|| 
 A|-------5h7---------5h7---------5h7----------|| 
 E|-5-----------5-----------5---------5-----6--|| 


Chorus Riff: 
 e|-----------------------------------------------|| 
 B|-----------------------------------------------|| 
 G|-----------------------------------------------|| 
 D|-7---5-5--7----3-3-3-3-3-3-3-3-3-3-3-3-3-3-3-3-|| 
 A|-7---5-5--7----3-3-3-3-3-3-3-3-3-3-3-3-3-3-3-3-|| 
 E|-5---0h3--5----1-1-1-1-1-1-1-1-1-1-1-1-1-1-1-1-|| 

______________________________________________________________________________ 
Track 12-Another Love Song 
Tuning-Standard 

Intro Riff: 
 e|------------------------------|-----------------------------| 
 B|--------------------9---------|----------9-9--9-------------| 
 G|-9-10-12-10-10--12------9-9---|-9-10-12--------12-10-9-9-9--| 
 D|---------------------10-------|-----------------------------| 
 A|------------------------------|-----------------------------| 
 E|------------------------------|-----------------------------| 

 e|------------------------------|------------------------------|| 
 B|--------------------9---------|---------------9--9-------11~-|| 
 G|-9-10-12-10-10--12------9-9---|-9-10-12-10-12------10-12-----|| 
 D|---------------------10-------|------------------------------|| 
 A|------------------------------|------------------------------|| 
 E|------------------------------|------------------------------|| 

Verse: 
 C#m G#7 E   G#7 
 C#m G#7 C#m G#7 
 C#m G#7 E   G#7 
 C#m G#7 Bm  C5  C#m 


Bridge: 
 C#m Bbm A 

______________________________________________________________________________ 
Track 13-A Song For The Deaf 
Tuning-C G Eb Bb F C 

Riff A: 
 C|--------------------------------|| 
 G|--------------------------------|| 
Eb|--------------------------------|| 
Bb|----------------------6v-6v-----|| 
 F|----8p7----8p7----8p7-------8p7-|| 
 C|-0------0------0----------------|| 

Chorus Riff: 
 C|--------0---------0---------0---------0--|| 
 G|--------0---------0---------0---------0--|| 
Eb|-----------------------------------------|| 
Bb|-7--7-7----9--9-9----5--5-5----5--5-5----|| 
 F|-7--7-7----9--9-9----5--5-5----5--5-5----|| 
 C|-5--5-5----7--7-7----3--3-3----3--3-3----|| 

Chorus Fills: 
 C|-------------|-------------|----------|-------|| 
 G|-10h12p10-10-|-12h14p12-12-|-8h10p8-8-|-8h10--|| 
Eb|-------------|-------------|----------|-------|| 
Bb|-------------|-------------|----------|-------|| 
 F|-------------|-------------|----------|-------|| 
 C|-------------|-------------|----------|-------|| 

Riff B:            (x4)                 (x4) 
 C|--------------------|--------------------|| 
 G|-13p12p10-12p10-12--|--------------------|| 
Eb|--------------------|-14p13p11-13p11-13--|| 
Bb|--------------------|--------------------|| 
 F|--------------------|--------------------|| 
 C|--------------------|--------------------|| 

 Canary Riff: 
 C|---------------------------------|| 
 G|-13---10-12-----------12---------|| 
Eb|------------10---13------10------|| 
Bb|----------------------------12---|| 
 F|---------------------------------|| 
 C|---------------------------------|| 

Verse 3: 
 C|-----------------------------------------------| 
 G|-----------------------------------------------| 
Eb|-----------------------------------------------| 
Bb|-2----------2-2---2----2-2-2--2--2--2-2-2-2-2--| 
 F|-2----------2-2---2----2-2-2--2--2--2-2-2-2-2--| 
 C|-0----------0-0---0----0-0-0--0--0--0-0-0-0-0--| 

 C|-----------------------------------------------|| 
 G|-----------------------------------------------|| 
Eb|-----------------------------------------------|| 
Bb|-2----------2-2---------2----------2-2---------|| 
 F|-2----------2-2---------2----------2-2---------|| 
 C|-0----------0-0---------0----------0-0---------|| 

Verse 4: 
Riff A. 
 C|---------------------------------------------------------------------------|| 
 G|---------------------------------------------------------------------------|| 
Eb|---------7v-7v-------------7v-7v-------------7v-7v-------------10v-10v-----|| 
Bb|---------------------------------------------------------------------------|| 
 F|-----8p7-------8p7-----8p7-------8p7-----8p7-------8p7-----8p7---------8p7-|| 
 C|-0-0---------------0-0---------------0-0---------------0-0-----------------|| 

Riff B. 
 C|-----------------------------------------------------------------------------|| 
 G|-----------------------------------------------------------------------------|| 
Eb|---------7v-7v-------------7v-7v-------------10v-10v-------------10v-10v-----|| 
Bb|-----------------------------------------------------------------------------|| 
 F|-----8p7-------8p7-----8p7-------8p7-----8p7---------8p7-----8p7---------8p7-|| 
 C|-0-0---------------0-0---------------0-0-----------------0-0-----------------|| 

Ending: 
 C|---|| 
 G|---|| 
Eb|---|| 
Bb|-2-|| 
 F|-2-|| 
 C|-0-|| 

______________________________________________________________________________ 
Track 14-Mosquito Song 
Tuning-C G Eb Bb F C (This is played on a 12 string guitar) 

Verse Riff: 
 C|-----0---------------------0-------0---|| 
 G|---------0h1---------------1-------0---|| 
Eb|---2---------0h2-----------0-0-----1---|| 
Bb|-------2---------0h2p0---2-2-------2-2-|| 
 F|-0-------------------0-3---3-----2-2---|| 
 C|-------------------------------0---0---|| 


Chorus Riff: 
 C|-----------------0--------------------------0--0------0-----0--0------| 
 G|-3-----3--3------1----1-0h1-----------------0--0------1-----1--1------| 
Eb|-2-----2--2------2--2-------0h2-------1-----1--1------2---2-2--2--2-2-| 
Bb|-0---0-0--0--0-0-2--------------0h2p0-2---2-2--2--2-2-2---2-2--2--2-2-| 
 F|-0---0-0--0--0-0-0------------------0-2---2-2--2--2-2-0---0-0--0------| 
 C|--------------------------------------0-----0--0----------------------| 

 C|-----------------0-----0--0-------0-------------|| 
 G|-3-----3--3------1-----1--1-------0-------------|| 
Eb|-2-----2--2------2---2-2--2--2-2--1-------------|| 
Bb|-0---0-0--0--0-0-2---2-2--2--2-2--2-------------|| 
 F|-0---0-0--0--0-0-0---0-0--0-------2-------------|| 
 C|----------------------------------0-------------|| 
		  

Full key step upFull key step up
Half key step upHalf key step up
Half key step downHalf key step down
Full key step downFull key step down
hide glossary

See also:

tabs Yes - Roundabout tabs Queen - we will rock you (solo) tabs Status Quo - Whatever you want tabs Eric Clapton - Tears In Heaven (ver. 3) tabs The Beatles - Blackbird tabs Billy Idol - White Wedding
e-chords

Other versions:

tabs Queens Of The Stone Age - Song For The Deaf
auto scroll beats size up size down change color hide chords drawings
tab show chords e-chords YouTube Clip e-chords hide all tabs e-chords go to top tab

share