Queens Of The Stone Age

Regular John

Queens Of The Stone Age

tabs Beginner beginner

save to print version add songbook text version e-mail correct tuner
chordsukulelecavacokeyboardtabbassdrumsharmonicaflute Guitar Pro
close

there isn't a video lesson for this song

chords

Regular John

	  		 
Afinação das 2 Guitarras: Padrão 
 
----****---- 
Riffs 
----****---- 
 
Riff 1: 
||--------------------------| 
||--------------------------| 
||--------------------------| 
||--5--5--5--5--5--5--5--5--| 
||--5--5--5--5--5--5--5--5--| 
||--3--3--3--3--3--3--3--3--| 
 
 
Riff 2 (tocado pela Guitarra 2): 
||----------------------|------------10~-------| 
||--11~-----------------|--10~-----------------| 
||-------------8~-------|----------------------| 
||----------------------|----------------------| 
||----------------------|----------------------| 
||----------------------|----------------------| 
 
 
RIff 3: 
||--------------------------|--------------------------|| 
||--------------4--4--4-----|--------------3--3--3-----|| 
||--5--5--5-----5--5--5-----|--5--5--5-----5--5--5-----|| 
||--5--5--5-----5--5--5-----|--5--5--5-----5--5--5-----|| 
||--3--3--3-----------------|--3--3--3-----------------|| 
||--------------------------|--------------------------|| 
 
 
Riff 4: 
||-----------------------------|--------------------------|| 
||-----------------------------|--------------------------|| 
||--5--------------6--6--------|--------------------------|| 
||--5--3--3--5--5--6--6--6--6--|--8--8--8--8--8--8--8--8--|| 
||--3--3--3--5--5--4--4--6--6--|--8--8--8--8--8--8--8--8--|| 
||-----1--1--3--3--------4--4--|--6--6--6--6--6--6--6--6--|| 
 
 
Riff 5: 
||--------------------------|--------------------------|| 
||--------------------------|--------------------------|| 
||-----8--8--8--8--8--8--8--|--------------5--5--5--5--|| 
||-----8--8--8--8--8--8--8--|--8--8--8--8--5--5--5--5--|| 
||-----6--6--6--6--6--6--6--|--8--8--8--8--3--3--3--3--|| 
||--------------------------|--6--6--6--6--------------|| 
 
 
Riff 6: 
||----------------------------|-------------------------------| 
||----------------------------|-------------------------------| 
||----------------------------|-------------------------------| 
||------------------8--10--8--|--10--8------8--10--8--10--10--| 
||--------6--8--10------------|---------10--------------------| 
||--6--8----------------------|-------------------------------| 
 
----------------------|| 
----------------------|| 
----------------------|| 
--10--8---------------|| 
---------10---6---8---|| 
----------------------|| 
 
 
------------------------------------ 
 
----****---- 
Música 
----****---- 
 
Intro:  Riff 1(2x) tocado apenas pela guitarra 1 
 
	Riff 1(8x) tocado pela guitarra 1 + Riff 2(4x)tocado pela guitarra 2 
 
	Riff 1(8x) tocado pelas 2 guitarras, como em todo o resto da música 
 
	Riff 3(4x) 
	 
	Riff 1(4x) 
 
 
 
Riff 1(4x) 
Who are you girl? 
Who are you boy? 
 
Riff 4(1x) 
 
Riff 1(4x) 
Bet I know what you're up to 
Can I come along 
 
Riff 4(1x) 
 
Riff 1(4x) 
Your home number's on the wall 
I just had to call... 
 
Riff 4(1x) 
had to 
 
Riff 1(1x) 
I'm not the only one 
Who will run with a knife 
 
Riff 4(1x) 
 
 
Riff 5(1x) 
Open up your eyes 
 
Riff 5(2x) + Riff 6(1x) 
Open up your arms 
Open up your room 
 
{Pausa} 
 
Riff 3(4x) 
 
Riff 1(4x) 
 
 
Riff 1(4x) 
One six two seven eight 
Two six three seven eight nine 
 
Riff 4(1x) 
 
Riff 1(4x) 
where's your daddy now 
I heard he ran away 
 
Riff 4(1x) 
 
Riff 1(4x) 
who are you girl? 
cause I'm so bored with myself... 
 
Riff 4(1x) 
anyway 
 
Riff 1(4x) 
any time and any place 
I'll just hang around 
 
Riff 4(1x) 
 
Riff 5(1x) 
Open up your eyes 
 
Riff 5(2x) + Riff 6(1x) 
Open up your arms 
Open up your room 
 
 
{Pausa} 
 
Riff 1(8x) {PM} 
 
Riff 1(2x) {PM} + Riff 2(1x) 
 
Riff 1(2x) {PM} 
 
Riff 1(2x) {PM} + Riff 2(1x) 
 
Riff 1(2x) {PM} 
 
Riff 1(2x) {PM} + Riff 2(1x) 
 
Riff 1(4x) 
 
 
Riff 1(4x) 
one six two seven eight 
two six three seven eight nine 
 
Riff 4(1x) 
 
 
Riff 5(1x) 
Open up your eyes 
 
Riff 5(2x) + Riff 6(1x) 
open up your room 
open up your arms 
 
Riff 5(2x) + Riff 6(1x) 
open up your door 
open up your eyes 
 
Riff 5(2x) + Riff 6(1x) 
open up your room 
open up your eyes 
 
 
Final: C5 
 
___________________________________________________________ 
Correção: Henrique Pontes Brant ([email protected]) 

		  

Full key step upFull key step up
Half key step upHalf key step up
Half key step downHalf key step down
Full key step downFull key step down
hide glossary

See also:

tabs The Smiths - Heaven Knows I'm Miserable Now tabs Eagles - Hotel California tabs The Beatles - All My Loving tabs Deep Purple - Smoke On The Water (Easy Intro) tabs Dire Straits - Sultans of Swing tabs Santana - Maria Maria
e-chords

Other versions:

tabs Queens Of The Stone Age - Regular John tabs Queens Of The Stone Age - Regular John Live
auto scroll beats size up size down change color hide chords drawings
tab show chords e-chords YouTube Clip e-chords hide all tabs e-chords go to top tab

share