Pull Down

O Gosto Amargo Em Minha Boca São Lágrimas

Pull Down

tabs Expert expert

save to print version add songbook text version e-mail correct tuner
chordsukulelecavacokeyboardtabbassdrumsharmonicaflute Guitar Pro
close

there isn't a video lesson for this song

chords

O Gosto Amargo Em Minha Boca São Lágrimas

	  		 
INTRO (x4): 
e|-----------------------------------------| 
B|---------------7-----7------7------------| 
G|-5~---7~-----7---7--------7---7---7---5~-| 
D|-5~---7~---5-------5-----5--------7---5~-| 
A|-3~---5~---------------7----------5---3~-| 
E|-----------------------------------------| 
 
================================================================ 
 
Base (x2): 
"Tudo seria diferente" 
e|----------------------------------------------| 
B|--------------------7-----7------7------------| 
G|-5-5-5---7-7-7----7---7--------7---7---7---5~-| 
D|-5-5-5---7-7-7--5-------5-----5--------7---5~-| 
A|-3-3-3---5-5-5--------------7----------5---3~-| 
E|----------------------------------------------| 
   xxxxx   xxxxx 
  
Obs.: x = abafado 
 
================================================================ 
 
Refrão (x2): 
"..nada faz parar" 
e|------------------|    e pra sair do refrão: 	e|-----------------| 
B|------------------|				B|-----------------| 
G|-5---7---2---5----|				G|-5-5-5-5---7~----| 
D|-5---7---2---5----|				D|-5-5-5-5---7~----| 
A|-3---5---0---3----|				A|-3-3-3-3---5~----| 
E|------------------|				E|-----------------| 
						       x x 
 
================================================================ 
 
Intro 	x2 
Base	x2 
Refrão	x2 
 
================================================================ 
 
Ponte: 
 
Depois do refrão faz a saída mais uma vez e depois mais outras duas vezes assim ó: 
e|------------------| 
B|------------------| 
G|-7-7---12-12--11~-| 
D|-x-x----x--x--x---| 
A|-5-5---10-10--9~--| 
E|------------------| 
 
================================================================ 
 
Parte Quebrada (x2): 
e|-----------------------------------------------| 
B|-----------------------------------------------| 
G|-5-x-5-x-5-x-5---7-x-7-x-7-x-7---2-2---4h5-5---| 
D|-5-x-5-x-5-x-5---7-x-7-x-7-x-7---2-2---4h5-5---| 
A|-3-x-3-x-3-x-3---5-x-5-x-5-x-5---0-0---2h3-3---| 
E|-----------------------------------------------| 
 
Obs.: h = ligação 
 
================================================================ 
 
Refrão (x4) 
 
================================================================ 
 
Final: 
e|-------------------------------------------------| 
B|-------------------------------------------------| 
G|-5-x-5-x-5-x-5---7-x-7-x-7-x-7---5-5-5-5---7~----| 
D|-5-x-5-x-5-x-5---7-x-7-x-7-x-7---5-5-5-5---7~----| 
A|-3-x-3-x-3-x-3---5-x-5-x-5-x-5---3-3-3-3---5~----| 
E|-------------------------------------------------| 
				       x x	 
 
================================================================ 
 
Resumo: 
 
Intro 	  x4 
Base 	  x2 
Refrão 	  x2 
Intro 	  x2 
Base	  x2 
Refrão	  x2 
Ponte 	  x1 
Quebrada  x2 
Refrão 	  x4 
Final     x1 
 
================================================================ 
 
Letra: Giovani  
 
Tudo seria diferente  
se pudesse fazer mudar  
agora não precisa mais chorar  
Preferi sofrer, do que arriscar  
 
Lembranças que nos machucam  
Sempre voltam ao mesmo lugar  
o pensamento nos leva para longe  
distante do que tentamos buscar  
 
Nada faz parar  
A dor de te perder  
Agora estou bem demais  
Para me arrepender  
 
 
_______________________________________________________ 
Contribuição: Jonathan Cavichioli([email protected]) 

		  

See also:

tabs Reação em Cadeia - Os Dias (Intro) tabs Sandy & Júnior - Maria Chiquinha (acústico Mtv) tabs Roupa Nova - A Lenda (solo) tabs Papas da Língua - No Calor da Hora tabs Dragon Ball - Dragon Ball Gt tabs Felipe Dylon - Deixa Disso
e-chords

Other versions:

tabs Pull Down - O Gosto Amargo Em Minha Boca São Lágrimas
auto scroll beats size up size down change color hide chords drawings
tab show chords e-chords YouTube Clip e-chords hide all tabs e-chords go to top tab

share