Primordial

The Golden Spiral

Primordial

tabs

by  PAULLET3

save to print version add songbook text version e-mail correct tuner
chordsukulelecavacokeyboardtabbassdrumsharmonicaflute Guitar Pro
close

there isn't a video lesson for this song

chords

The Golden Spiral

	  		
Riff #1 (28x) 

e|-------------------------------| 
B|-------------------------------| 
G|-------------------------------| 
D|-------------------------------| 
A|-7--7-7-7--7--7-7-7--7-3-0-----| 
E|-0--0-0-0--0--0-0-0--0-0-0-----| 
   ^  ^ v ^  ^  ^ v ^  ^ ^ ^ 


Harmonic #1 

e|------------------------------------------------------------------------------------| 
B|------------------------------------------------------------------------------------| 
G|-12--12-12-12--12--12-12-12--12--12-12-12--11--11-11-11--11--11-11-11--11-12-11-----| 
D|------------------------------------------------------------------------------------| 
A|-10--10-10-10--10--10-10-10--10--10-10-10--9---9--9--9---9---9--9--9---9--10-9------| 
E|------------------------------------------------------------------------------------| 
   ^   ^  v  ^   ^   ^  v  ^   ^   ^  v  ^   ^   ^  v  ^   ^   ^  v  ^   ^  ^  ^ 


Riff #3 (2x) 
e|-------------------------------| 
B|-------------------------------| 
G|-9--9-9-9--9--9-9-9--9-5-------| 
D|-------------------------------| 
A|-7--7-7-7--7--7-7-7--7-3-0-----| 
E|-0--0-0-0--0--0-0-0--0-0-0-----| 
   ^  ^ v ^  ^  ^ v ^  ^ ^ ^ 


|Riff #1 (4x) 
|Harmonic #1 
|Riff #3 (2x) 
|Riff #1 (4x) 
|Harmonic #1 
|Riff #3 (2x) 
|Riff #1 (4x) 
|Harmonic #1 
|Riff #3 (2x) 
|Riff #1 (2x) 


Riff #4 (3x) 

e|--------------------------------------------------------------------------------------------| 
B|--------------------------------------------------------------------------------------------| 
G|--------------------------------------------------------------------------------------------| 
D|-7--7-7-7--7--7-7-7--7-5-7--10--10-10-10--10--10-10-10--10-9-7--9--9-9-9--9--9-9-9--9-7-10--| 
A|-3--3-3-3--3--3-3-3--3-3-3--0---0--0--0---0---0--0--0---0--0-0--7--7-7-7--7--7-7-7--7-7-7---| 
E|----------------------------------------------------------------0--0-0-0--0--0-0-0--0-0-0---| 
   ^  ^ v ^  ^  ^ v ^  ^ ^ ^  ^   ^  v  ^   ^   ^  v  ^   ^  ^ ^  ^  ^ v ^  ^  ^ v ^  ^ ^ ^ 

                                Riff #4/2 
e|----------------------------|---------------------------------------------------------------| 
B|----------------------------|---------------------------------------------------------------| 
G|----------------------------|---------------------------------------------------------------| 
D|-9--9-9-9--9--9-9-9--9-7-10-|-7--7-7-7--7--7-7-7--7-5-7--10--10-10-10--10--10-10-10--10-9-7-| 
A|-7--7-7-7--7--7-7-7--7-7-7--|-3--3-3-3--3--3-3-3--3-3-3--0---0--0--0---0---0--0--0---0--0-0-| 
E|-0--0-0-0--0--0-0-0--0-0-0--|---------------------------------------------------------------| 
   ^  ^ v ^  ^  ^ v ^  ^ ^ ^    ^  ^ v ^  ^  ^ v ^  ^ ^ ^  ^   ^  v  ^   ^   ^  v  ^   ^  ^ ^ 

|Riff #1 (8x) 
|Harmonic #1 
|Riff #3 (2x) 
|Riff #1 (4x) 
|Harmonic #1 
|Riff #3 (2x) 
|Riff #1 (4x) 
|Harmonic #1 
|Riff #3 (2x) 
|Riff #1 (4x) 
|Harmonic #1 
|Riff #3 (2x) 
|Riff #1 (2x) 
|Riff #4 (3x) 
|Riff #4/2 


Riff #5 (4x) 

e|-------------------------------------------| 
B|-------------------------------------------| 
G|-------------------------------------------| 
D|-6---6--6--6---6---6--6--6---6--7--9-------| 
A|-7---7--7--7---7---7--7--7---7--7--7-------| 
E|-0---0--0--0---0---0--0--0---0--0--0-------| 
   ^   ^  v  ^   ^   ^  v  ^   ^  ^  ^ 


Riff #6 

e|--------------------------------------------------------------------------------------| 
B|--------------------------------------------------------------------------------------| 
G|--------------------------------------------------------------------------------------| 
D|--------------------------------------------------------------------------------------| 
A|-7--7-7-7--7--7-7-7--7-5-3--7--7-7-7--7--7-7-7--7-5-3--7--7-7-7--7--7-7-7--7-5-3------| 
E|-3--3-3-3--3--3-3-3--3-3-3--3--3-3-3--3--3-3-3--3-3-3--3--3-3-3--3--3-3-3--3-3-3------| 
   ^  ^ v ^  ^  ^ v ^  ^ ^ ^  ^  ^ v ^  ^  ^ v ^  ^ ^ ^  ^  ^ v ^  ^  ^ v ^  ^ ^ ^ 

e|---------------------------| 
B|---------------------------| 
G|---------------------------| 
D|---------------------------| 
A|-5--5-5-5--5--5-5-5--5-3-5-| 
E|-3--3-3-3--3--3-3-3--3-3-3-| 
   ^  ^ v ^  ^  ^ v ^  ^ ^ ^ 


Riff #7 (4x) 

e|----------------------------------| 
B|----------------------------------| 
G|----------------------------------| 
D|-9--9-9-9--9--9-9-9--9----6-6-----| 
A|-7--7-7-7--7--7-7-7--7--8-8-8-----| 
E|-0--0-0-0--0--0-0-0--0--0-0-0-----| 
   ^  ^ v ^  ^  ^ v ^  ^  ^ v ^ 

|Riff #6 
|Riff #7 (4x) 
|Riff #6 
|Riff #7 (4x) 
|Riff #6 


Open string 
e|------------------------| 
B|------------------------| 
G|------------------------| 
D|------------------------| 
A|------------------------| 
E|-0~~----~~~~~~~~~~~~~~~~| 
   ^ 

Tremolo picking #1 (16x) 

e|--------------------------------------------------------------| 
B|--------------------------------------------------------------| 
G|--------------------------------------------------------------| 
D|--------------9-9-9--9--9--9---------------6-6-6--6--6--6-----| 
A|-7--7-7-7--7------------------8--8-8-8--8---------------------| 
E|--------------------------------------------------------------| 
   ^  ^ v ^  ^  ^ v ^  ^  ^  ^  ^  ^ v ^  ^  ^ v ^  ^  ^  ^ 

|Riff #4 (3x) 
|Riff #4/2 
|Riff #1 (28x) 
|Open string 

?GUITAR II? (Distortion) 


Riff #1 (6x) (0:04) 

e|---------------------------------| 
B|---------------------------------| 
G|---------------------------------| 
D|---------------------------------| 
A|-7--7-7-7--7--7-7-7--7-3-0-------| 
E|-0--0-0-0--0--0-0-0--0-0-0-------| 
   ^  ^ v ^  ^  ^ v ^  ^ ^ ^ 


Harmonic #1 (2x) 

e|----------------------------------------------------------------------------------| 
B|----------------------------------------------------------------------------------| 
G|-16--16-16-16--16--16-16-16--16-14-17--16--16-16-16--16--16-16-16--16-14-12-------| 
D|----------------------------------------------------------------------------------| 
A|-14--14-14-14--14--14-14-14--14-12-15--14--14-14-14--14--14-14-14--14-12-10-------| 
E|----------------------------------------------------------------------------------| 
   ^   ^  v  ^   ^   ^  v  ^   ^  ^  ^   ^   ^  v  ^   ^   ^  v  ^   ^  ^  ^ 


Riff #2 (4x) 

e|---------------------------------| 
B|---------------------------------| 
G|-9--9-9-9--9--9-9-9--9-5---------| 
D|---------------------------------| 
A|-7--7-7-7--7--7-7-7--7-3-0-------| 
E|-0--0-0-0--0--0-0-0--0-0-0-------| 
   ^  ^ v ^  ^  ^ v ^  ^ v ^ 


|Harmonic #1 (2x) 


Harmonic #2(4x) 

e|------------------------------------------| 
B|------------------------------------------| 
G|-12--12-12-12--12--12-12-12--12-9-7-------| 
D|------------------------------------------| 
A|-10--10-10-10--10--10-10-10--10-7-5-------| 
E|------------------------------------------| 
   ^   ^  v  ^   ^   ^  v  ^   ^  ^ ^ 

|Riff #1 (4x) 


Harmonic #3 
e|--------------------------------------------------------------------------------------| 
B|--------------------------------------------------------------------------------------| 
G|-16--16-16-16--16--16-16-16--16--16-16-16--11--11-11-11--11--11-11-11--11-12-11-------| 
D|--------------------------------------------------------------------------------------| 
A|-14--14-14-14--14--14-14-14--14--14-14-14--9---9--9--9---9---9--9--9---9--10-9--------| 
E|--------------------------------------------------------------------------------------| 
   ^   ^  v  ^   ^   ^  v  ^   ^   ^  v  ^   ^   ^  v  ^   ^   ^  v  ^   ^  ^  ^ 


|Riff #2 (2x) 
|Riff #1 (4x) 


Harmonic #4 

e|--------------------------------------------------------------------------------------| 
B|--------------------------------------------------------------------------------------| 
G|-16--16-16-16--16--16-16-16--16--16-16-16--14--14-14-14--14--14-14-14--14-16-17-------| 
D|--------------------------------------------------------------------------------------| 
A|-14--14-14-14--14--14-14-14--14--14-14-14--12--12-12-12--12--12-12-12--12-14-15-------| 
E|--------------------------------------------------------------------------------------| 
   ^   ^  v  ^   ^   ^  v  ^   ^   ^  v  ^   ^   ^  v  ^   ^   ^  v  ^   ^  ^  ^ 


Harmonic #5 

e|--------------------------------------------| 
B|--------------------------------------------| 
G|-16--16-16-16--16--16-16-16--16-14-12-------| 
D|--------------------------------------------| 
A|-14--14-14-14--14--14-14-14--14-12-10-------| 
E|--------------------------------------------| 
   ^   ^  v  ^   ^   ^  v  ^   ^  ^  ^ 


|Riff #1 (4x) 
|Harmonic #3 
|Riff #2 (2x) 
|Riff #1 (4x) 
|Harmonic #4 


Harmonic #6 

e|--------------------------------------------------------------------------------------| 
B|--------------------------------------------------------------------------------------| 
G|-16--16-16-16--16--16-16-16--16--19-19-19--21--21-21-21--21--21-21-21--21-21-21-------| 
D|--------------------------------------------------------------------------------------| 
A|-14--14-14-14--14--14-14-14--14--17-17-17--19--19-19-19--19--19-19-19--19-19-19-------| 
E|--------------------------------------------------------------------------------------| 
   ^   ^  v  ^   ^   ^  v  ^   ^   ^  v  ^   ^   ^  v  ^   ^   ^  v  ^   ^  ^  ^ 


Riff #3 (4x) 

e|-------------------------------------------------------------| 
B|-------------------------------------------------------------| 
G|-------------------------------------------------------------| 
D|-9--9-9-9--9--9-9-9--9-7-10--9--9-9-9--9--9-9-9--9-7-10------| 
A|-7--7-7-7--7--7-7-7--7-7-7---7--7-7-7--7--7-7-7--7-7-7-------| 
E|A|-0--0-0-0--0--0-0-0--0-0-0---0--0-0-0--0--0-0-0--0-0-0-----| 
   ^  ^ v ^  ^  ^ v ^  ^ ^ ^   ^  ^ v ^  ^  ^ v ^  ^ ^ ^ 

e|---------------------------------------------------------------| 
B|---------------------------------------------------------------| 
G|---------------------------------------------------------------| 
D|-7--7-7-7--7--7-7-7--7-5-7--10--10-10-10--10--10-10-10--10-9-7-| 
A|-3--3-3-3--3--3-3-3--3-3-3--0---0--0--0---0---0--0--0---0--0-0-| 
E|---------------------------------------------------------------| 
   ^  ^ v ^  ^  ^ v ^  ^ ^ ^  ^   ^  v  ^   ^   ^  v  ^   ^  ^ ^ 


|Riff #1 (8x) 
|Harmonic #3 
|Riff #2 (2x) 
|Riff #1 (4x) 
|Harmonic #4 
|Harmonic #5 
|Riff #1 (4x) 
|Harmonic #3 
|Riff #2 (2x) 
|Riff #1 (4x) 
|Harmonic #4 
|Harmonic #6 
|Riff #3 (4x) 


Riff #4 (4x) 

e|-------------------------------------------| 
B|-------------------------------------------| 
G|-------------------------------------------| 
D|-6---6--6--6---6---6--6--6---6--7--9-------| 
A|-7---7--7--7---7---7--7--7---7--7--7-------| 
E|-0---0--0--0---0---0--0--0---0--0--0-------| 
   ^   ^  v  ^   ^   ^  v  ^   ^  ^  ^ 


Riff #5 

e|--------------------------------------------------------------------------------------| 
B|--------------------------------------------------------------------------------------| 
G|--------------------------------------------------------------------------------------| 
D|--------------------------------------------------------------------------------------| 
A|-7--7-7-7--7--7-7-7--7-5-3--7--7-7-7--7--7-7-7--7-5-3--7--7-7-7--7--7-7-7--7-5-3------| 
E|-3--3-3-3--3--3-3-3--3-3-3--3--3-3-3--3--3-3-3--3-3-3--3--3-3-3--3--3-3-3--3-3-3------| 
   ^  ^ v ^  ^  ^ v ^  ^ ^ ^  ^  ^ v ^  ^  ^ v ^  ^ ^ ^  ^  ^ v ^  ^  ^ v ^  ^ ^ ^ 

e|---------------------------| 
B|---------------------------| 
G|---------------------------| 
D|---------------------------| 
A|-5--5-5-5--5--5-5-5--5-3-5-| 
E|-3--3-3-3--3--3-3-3--3-3-3-| 
   ^  ^ v ^  ^  ^ v ^  ^ ^ ^ 


Riff #6 (4x) 

e|------------------------------------| 
B|------------------------------------| 
G|------------------------------------| 
D|-9--9-9-9--9--9-9-9--9----6-6-------| 
A|-7--7-7-7--7--7-7-7--7--8-8-8-------| 
E|-0--0-0-0--0--0-0-0--0--0-0-0-------| 
   ^  ^ v ^  ^  ^ v ^  ^  ^ v ^ 


|Riff #5 
|Riff #6 (4x) 
|Riff #5 
|Riff #6 (4x) 
|Riff #5 


Open string 
e|E|----------------------| 
B|------------------------| 
G|------------------------| 
D|------------------------| 
A|------------------------| 
E|-0~~~~~~~~~~~~~~~~~~| 


Tremolo picking #1 (8x) 

e|----------------------------------------------------------------| 
B|----------------------------------------------------------------| 
G|----------------------------------------------------------------| 
D|--------------9-9-9--9--9--9---------------6-6-6--6--6--6-------| 
A|-7--7-7-7--7------------------8--8-8-8--8-----------------------| 
E|----------------------------------------------------------------| 
   ^  ^ v ^  ^  ^ v ^  ^  ^  ^  ^  ^ v ^  ^  ^ v ^  ^  ^  ^ 


Tremolo picking #2 

e|--------------------------------------------------------------------------| 
B|--------------------------------------------------------------------------| 
G|----------------------------------------9--9-9-9--9--9-9-9--9-------------| 
D|---------------------------------9--12-------------------------12--9------| 
A|-11--11-11-11--11--11-11-11--11-------------------------------------------| 
E|--------------------------------------------------------------------------| 
   ^   ^  v  ^   ^   ^  v  ^   ^   ^  ^   ^  ^ v ^  ^  ^ v ^  ^  ^   ^ 


e|---------------------------------------------------------------------| 
B|---------------------------------------------------------------------| 
G|----------------------------------------9--9-9-9--9--9-9-9--9--------| 
D|---------------------------------9--12-------------------------12--9-| 
A|-11--11-11-11--11--11-11-11--11--------------------------------------| 
E|---------------------------------------------------------------------| 
   ^   ^  v  ^   ^   ^  v  ^   ^   ^  ^   ^  ^ v ^  ^  ^ v ^  ^  ^   ^ 

e|---------------------------------------------------------------------| 
B|---------------------------------------------------------------------| 
G|----------------------------------------9--9-9-9--9--9-9-9--9--------| 
D|---------------------------------9--12-------------------------12--9-| 
A|-11--11-11-11--11--11-11-11--11--------------------------------------| 
E|---------------------------------------------------------------------| 
   ^   ^  v  ^   ^   ^  v  ^   ^   ^  ^   ^  ^ v ^  ^  ^ v ^  ^  ^   ^ 

e|-----------------------------------------------------------------------------| 
B|----------------------------------------10--10-10-10--10--10-10-10--10--8----| 
G|---------------------------------------------------------------------------9-| 
D|---------------------------------9--12---------------------------------------| 
A|-11--11-11-11--11--11-11-11--11----------------------------------------------| 
E|-----------------------------------------------------------------------------| 
   ^   ^  v  ^   ^   ^  v  ^   ^   ^  ^   ^   ^  v  ^   ^   ^  v  ^   ^   ^  ^ 


Tremolo picking #3 (8x) 

e|----------------------------------------------------------------| 
B|----------------------------------------------------------------| 
G|----------------------------------------------------------------| 
D|--------------9-9-9--9--9--9------------------------------------| 
A|-7--7-7-7--7------------------8--8-8-8--8-----------------------| 
E|-------------------------------------------4-4-4--4--4--4-------| 
   ^  ^ v ^  ^  ^ v ^  ^  ^  ^  ^  ^ v ^  ^  ^ v ^  ^  ^  ^ 


|Riff #3 (4x) 
|Riff #1 (4x) 
|Riff #2 (4x) 
|Riff #1 (4x) 
|Riff #2 (4x) 
|Riff #1 (4x) 
|Riff #2 (4x) 
|Riff #1 (4x) 
|Open string 

************************************ 

| ~  Vibrato 
| ^   up (strumming) 
| V   down (strumming) 

************************************ 
		  

See also:

tabs Banda Glória - asas fracas tabs Matanza - Ela Roubou Meu Caminhão tabs CPM 22 - Cidade em Chamas tabs Tequila Baby - 51 tabs CPM 22 - O Mundo Dá Voltas tabs Blind Pigs - Legião de Inconformados
e-chords

Other versions:

tabs Primordial - The Golden Spiral
auto scroll beats size up size down change color hide chords drawings
tab show chords e-chords YouTube Clip e-chords hide all tabs e-chords go to top tab

share