Pop Evil

Trenches

Pop Evil

tabs

by  ALYSLIMA

save to print version add songbook text version e-mail correct tuner
chordsukulelecavacokeyboardtabbassdrumsharmonicaflute Guitar Pro
close

there isn't a video lesson for this song

chords

Trenches

	  		 
0:00 - 0:23 
Intro 
e|-----------------------------------------------| 
B|-----------------------------------------------| 
G|--------4-4-4-4-4------------------------------| 
D|--2-0-------------4*-----2-0-----7p5--7p5--5---|   x5 
A|--2-0--------------------2-0-----7p5--7p5--5---| 
E|--2-0--------------------2-0-----7p5--7p5--5---| 
        I find if you can make the pitch harmonic and then sligtly bend it, 
                you get a little more accurate sound. 

0:24-0:33 
Pre-Verse 
e|--------------------------------------------------| 
B|--------------------------------------------------| 
G|--------------------------------------------------| 
D|--2-0-----------1-0-----2-0-----------------------|     x2 
A|--2-0----0-0-0--1-0-----2-0---0-0----3/7----3/7---| 
E|--2-0----0-0-0--1-0-----2-0---0-0-----------------| 
           x x x  x             x x 

0:34-0:43 
verse 1 
e|-----------------------------------------------| 
B|-----------------------------------------------| 
G|--------4-4-4-4-4------------------------------| 
D|--2-0-------------4*-----2-0-----7p5--7p5--5---|  x2 
A|--2-0--------------------2-0-----7p5--7p5--5---| 
E|--2-0--------------------2-0-----7p5--7p5--5---| 

0:43 -0:50 
Pre-Chorus 
e|--------------------| 
B|--------------------| 
G|---------16~~-------| 
D|---13~~-------17~~--|  x2 
A|--------------------| 
E|--------------------| 
                This little section is played over the verse. So only the last 7 sec 
                        of the verse contains this lick. I use a little bit of Wah to 
                        help kinda bring it out a bit better. 

0:50-1:11 
Chorus 
e|--------------------------------------------------------------------------| 
B|--------------------------------------------------------------------------| 
G|--------------------------------------------------------------------------| 
D|----9-9-9-9-9-9-9-9-9-9-9-9-9-9-9-9-9-/-7-7-7-7-7-7-7-7/-12-12-12-12-12-12| 
A|----7-7-7-7-7-7-7-7-7-7-7-7-7-7-7-7-7-/-5-5-5-5-5-5-5-5/-10-10-10-10-10-10| 
E|--------------------------------------------------------------------------| 
e|--------------------------------------------------------------------------| 
B|--------------------------------------------------------------------------| 
G|--------------------------------------------------------------------------| 
D|----12-12-/-17-17-17-17-17-17-17-17-17-17-17-17-17-17-17-17/-12-12-12-12--| 
A|----10-10-/-15-15-15-15-15-15-15-15-15-15-15-15-15-15-15-15/-10-10-10-10--| 
E|--------------------------------------------------------------------------| 

e|-------------------------------| 
B|-------------------------------| 
G|-------------------------------| 
D|-----12-12-/-7-7-7-7-7-7-7-7---|  x2 
A|-----10-10-/-5-5-5-5-5-5-5-5---| 
E|-------------------------------| 
                The timing may be a little off so just listen for it and you 
                        should pick it right up. 

1:12-1:20 
Post Chorus 
e|--------------| 
B|--------------| 
G|--------------| 
D|--------------|   x3 
A|---2---2------| 
E|---2---2------| 

1:21-1:31 
Re-Intro 
e|-----------------------------------------------| 
B|-----------------------------------------------| 
G|--------4-4-4-4-4------------------------------| 
D|--2-0-------------4*-----2-0-----7p5--7p5--5---|  x2 
A|--2-0--------------------2-0-----7p5--7p5--5---| 
E|--2-0--------------------2-0-----7p5--7p5--5---| 

1:32-1:40 
Pre-Verse 
e|--------------------------------------------------| 
B|--------------------------------------------------| 
G|--------------------------------------------------| 
D|--2-0-----------1-0-----2-0-----------------------|     x2 
A|--2-0----0-0-0--1-0-----2-0---0-0----3/7----3/7---| 
E|--2-0----0-0-0--1-0-----2-0---0-0-----------------| 
           x x x  x             x x 

1:41-1:50 
verse 2 
e|-----------------------------------------------| 
B|-----------------------------------------------| 
G|--------4-4-4-4-4------------------------------| 
D|--2-0-------------4*-----2-0-----7p5--7p5--5---|  x2 
A|--2-0--------------------2-0-----7p5--7p5--5---| 
E|--2-0--------------------2-0-----7p5--7p5--5---| 

1:51-1:57 
Pre-Chorus 
e|--------------------| 
B|--------------------| 
G|-------16~~---------| 
D|---13~~-----17~~----|  x2 
A|--------------------| 
E|--------------------| 

1:57-2:18 
Chorus 
e|--------------------------------------------------------------------------| 
B|--------------------------------------------------------------------------| 
G|--------------------------------------------------------------------------| 
D|----9-9-9-9-9-9-9-9-9-9-9-9-9-9-9-9-9-/-7-7-7-7-7-7-7-7/-12-12-12-12-12-12| 
A|----7-7-7-7-7-7-7-7-7-7-7-7-7-7-7-7-7-/-5-5-5-5-5-5-5-5/-10-10-10-10-10-10| 
E|--------------------------------------------------------------------------| 

e|--------------------------------------------------------------------------| 
B|--------------------------------------------------------------------------| 
G|--------------------------------------------------------------------------| 
D|----12-12-/-17-17-17-17-17-17-17-17-17-17-17-17-17-17-17-17/-12-12-12-12--| 
A|----10-10-/-15-15-15-15-15-15-15-15-15-15-15-15-15-15-15-15/-10-10-10-10--| 
E|--------------------------------------------------------------------------| 

e|-------------------------------| 
B|-------------------------------| 
G|-------------------------------| 
D|-----12-12-/-7-7-7-7-7-7-7-7---|  x2 
A|-----10-10-/-5-5-5-5-5-5-5-5---| 
E|-------------------------------| 

2:19-2:25 
Post-Chorus 
e|--------------| 
B|--------------| 
G|--------------| 
D|--------------|   x3 
A|---2---2------| 
E|---2---2------| 

2:25-2:28 
e|-------------------------------------------------------------------------| 
B|-------------------------------------------------------------------------| 
G|-------------------------------------------------------------------------| 
D|-------------------------------------------------------------------------| 
A|-------------------------------------------------------------------------| 
E|----PICK  SLIDE ON THIS STRING-------------------------------------------| 

2:29-2:42 
SOLO 
I am still working on this so I am not going try and tab it yet. 

2:47-3:26 
Chorus 
        The beginning of this Chorus use a phaser or similar for the first 
                few sections. 
e|--------------------------------------------------------------------------| 
B|--------------------------------------------------------------------------| 
G|--------------------------------------------------------------------------| 
D|----9-9-9-9-9-9-9-9-9-9-9-9-9-9-9-9-9-/-7-7-7-7-7-7-7-7/-12-12-12-12-12-12| 
A|----7-7-7-7-7-7-7-7-7-7-7-7-7-7-7-7-7-/-5-5-5-5-5-5-5-5/-10-10-10-10-10-10| 
E|--------------------------------------------------------------------------| 

e|--------------------------------------------------------------------------| 
B|--------------------------------------------------------------------------| 
G|--------------------------------------------------------------------------| 
D|----12-12-/-17-17-17-17-17-17-17-17-17-17-17-17-17-17-17-17--12-12-12-12--| 
A|----10-10-/-15-15-15-15-15-15-15-15-15-15-15-15-15-15-15-15--10-10-10-10--| 
E|--------------------------------------------------------------------------| 

e|-------------------------------| 
B|-------------------------------| 
G|-------------------------------| 
D|-----12-12-/-7-7-7-7-7-7-7-7---|  x2 
A|-----10-10-/-5-5-5-5-5-5-5-5---| 
E|-------------------------------| 

3:26-3:35 
e|--------------------------------------------------------------------------| 
B|--------------------------------------------------------------------------| 
G|--------------------------------------------------------------------------| 
D|--------------------------------------------------------------------------| 
A|--2--2-------2---2--------2--2--------2--2--------2-----------------------| 
E|--2--2-------2---2--------2--2--------2--2--------2 Whammy--to end--------| 
 
| /   slide up 
| \   slide down 
| h   hammer-on 
| p   pull-off 
| ~   vibrato 
| *  harmonic 
| x   Mute note 
| b   Bend 
| pb  Pre-bend 
| br  Bend release 
| pbr Pre-bend release 
| brb Bend release bend 

 
		  

auto scroll beats size up size down change color hide chords drawings
tab show chords e-chords YouTube Clip e-chords hide all tabs e-chords go to top tab

share