Pop Evil

Take It All

Pop Evil

tabs

by  JESSGOMES

save to print version add songbook text version e-mail correct tuner
chordsukulelecavacokeyboardtabbassdrumsharmonicaflute Guitar Pro
close

there isn't a video lesson for this song

chords

Take It All

	  		
Intro/Verse 

 Guitar 1 
 0:00 ? 0:34 
D||----------------------------------------------------------------------------||              
A||----------------------------------------------------------------------------||  
F||----------------------------------------------------------------------------||              
C||--------5-5h7p5--------------------------------5-5h7p5--------------5^v^v---||   <-4x          
G||----7-----------7p5p0h7------------------7------------7p5p0h7---------------||              
D||------0------------------0---3^-3^-3^------0----------------------0---------||       
  

Pre-Chorus 

 Guitar 1/2 
 0:34 ? 0:42                                    0:44 ? 0:49 
D||----------------------||           ||----0-----------0-----------0---||             
A||----------------------||           ||----0-----------0-----------0---|| 
F||----------------------||           ||----0----x--0---0----x--0---0---|| 
C||----------------------||   <-3x    ||----2----x--5---2----x--5---2---|| 
G||----7-----------------||           ||----2----x--5---2----x--5---2---|| 
D||------0---3^-3^-3^----||           ||----0----x--3---0----x--3---0---|| 


Chorus 

Guitar 1/2 
0:52 ? 1:08 


Verse 

D||---------------------------------------------------------------------------------|              
A||---------------------------------------------------------------------------------| 
F||---------------------9-9-9-9-7/-9-9-9-9-9-9-9---------------------9-7-9--9-7-9---|              
C||---5-5-5-5--7-7-7-7--9-9-9-9-7/-9-9-9-9-9-9-9---5-5-5-5--7-7-7-7--9-7-9--9-7-9---| 
G||---5-5-5-5--7-7-7-7--7-7-7-7-5/-7-7-7-7-7-7-7---5-5-5-5--7-7-7-7--7-5-7--7-5-7---|              
D||---3-3-3-3--5-5-5-5-----------------------------3-3-3-3--5-5-5-5-----------------| 

D|-------------------------------------------------------------------|| 
A|-------------------------------------------------------------------|| 
F|---------------------9-9-9-9-7/-9-9-9-9-9-9-9----------------------|| 
C|---5-5-5-5--7-7-7-7--9-9-9-9-7/-9-9-9-9-9-9-9---5-5-5-5--7-7-7-7---|| 
G|---5-5-5-5--7-7-7-7--7-7-7-7-5/-7-7-7-7-7-7-7---5-5-5-5--7-7-7-7---|| 
D|---3-3-3-3--5-5-5-5-----------------------------3-3-3-3--5-5-5-5---|| 


 Guitar 1 
 1:10 ? 1:27 
D||----------------------------------------------------------------------------||              
A||----------------------------------------------------------------------------||  
F||----------------------------------------------------------------------------||              
C||--------5-5h7p5--------------------------------5-5h7p5--------------5^v^v---||   <-2x          
G||----7-----------7p5p0h7-------------------7------------7p5p0h7--------------||              
D||-------0------------------0---3^-3^-3^------0----------------------0--------||        


Pre-Chorus 

 Guitar 1/2 
 1:27 ? 1:33                                    1:36 ? 1:41 
D||----------------------||           ||----0-----------0-----------0---||             
A||----------------------||           ||----0-----------0-----------0---|| 
F||----------------------||           ||----0----x--0---0----x--0---0---|| 
C||----------------------||   <-3x    ||----2----x--5---2----x--5---2---|| 
G||----7-----------------||           ||----2----x--5---2----x--5---2---|| 
D||------0---3^-3^-3^----||           ||----0----x--3---0----x--3---0---|| 


Chorus 

 Guitar 1/2 
 1:45 ? 2:00 
D||---------------------------------------------------------------------------------|              
A||---------------------------------------------------------------------------------| 
F||---------------------9-9-9-9-7/-9-9-9-9-9-9-9---------------------9-7-9--9-7-9---|              
C||---5-5-5-5--7-7-7-7--9-9-9-9-7/-9-9-9-9-9-9-9---5-5-5-5--7-7-7-7--9-7-9--9-7-9---| 
G||---5-5-5-5--7-7-7-7--7-7-7-7-5/-7-7-7-7-7-7-7---5-5-5-5--7-7-7-7--7-5-7--7-5-7---|             
D||---3-3-3-3--5-5-5-5-----------------------------3-3-3-3--5-5-5-5-----------------| 

D|-------------------------------------------------------------------|| 
A|-------------------------------------------------------------------|| 
F|---------------------9-9-9-9-7/-9-9-9-9-9-9-9----------------------|| 
C|---5-5-5-5--7-7-7-7--9-9-9-9-7/-9-9-9-9-9-9-9---5-5-5-5--7-7-7-7---|| 
G|---5-5-5-5--7-7-7-7--7-7-7-7-5/-7-7-7-7-7-7-7---5-5-5-5--7-7-7-7---||  
D|---3-3-3-3--5-5-5-5-----------------------------3-3-3-3--5-5-5-5---|| 


Interlude 

 Guitar 1/2 
 2:02 ? 2:20 
D||---------------------------------------------------------------------------------||              
A||---------------------------------------------------------------------------------|| 
F||---------------------9-9-9-9-7/-9-9-9-9-9-9-9---------------------9-7-9--9-7-9---||              
C||---5-5-5-5--7-7-7-7--9-9-9-9-7/-9-9-9-9-9-9-9---5-5-5-5--7-7-7-7--9-7-9--9-7-9---||   <-2x 
G||---5-5-5-5--7-7-7-7--7-7-7-7-5/-7-7-7-7-7-7-7---5-5-5-5--7-7-7-7--7-5-7--7-5-7---||              
D||---3-3-3-3--5-5-5-5-----------------------------3-3-3-3--5-5-5-5-----------------|| 


Outro 

 Guitar 1/2 
 2:37 ? 3:18 
D||---------------------------------------------------------------------------------||              
A||---------------------------------------------------------------------------------|| 
F||---------------------9-9-9-9-7/-9-9-9-9-9-9-9---------------------9-7-9--9-7-9---||              
C||---5-5-5-5--7-7-7-7--9-9-9-9-7/-9-9-9-9-9-9-9---5-5-5-5--7-7-7-7--9-7-9--9-7-9---||   <-4x 
G||---5-5-5-5--7-7-7-7--7-7-7-7-5/-7-7-7-7-7-7-7---5-5-5-5--7-7-7-7--7-5-7--7-5-7---||              
D||---3-3-3-3--5-5-5-5-----------------------------3-3-3-3--5-5-5-5-----------------|| 



************************************ 

| x  Dead note 
| h  Hammer-on 
| p  Pull-off 
| /  Slide up 

************************************ 
		  

auto scroll beats size up size down change color hide chords drawings
tab show chords e-chords YouTube Clip e-chords hide all tabs e-chords go to top tab

share