Pilita Corrales

Gaano Ko Ikaw Kamahal

Pilita Corrales

tabs

by  EDSOOLIVEIRA

save to print version add songbook text version e-mail correct tuner
chordsukulelecavacokeyboardtabbassdrumsharmonicaflute Guitar Pro
close

there isn't a video lesson for this song

chords

Gaano Ko Ikaw Kamahal

	  		
     
    Intro---- 
e|-----1-3-8-8-7-----7-5----5-3-1-0-3~--1-3-7/8~ ------------------------| 
B|---5---------------0------0---------3----------------------------------| 
G|-----------------0------0----------------------------------------------| 
D|---------------0------0------------------------------------------------| 
A|-----------------------------------------------------------------------| 
E|-0----------------------------------3----------------------------------| 
      
    verse 1 

e|-0-----------------0-1---------------------------1-0-----------5-2-0-2~---| 
B|-1---1-0-3-1-1-3-0-----1---1---5-3-2-0---3---3-------------2/3------------| 
G|---0---------------------2---2-4-4-----2---2---4-----2-0------------------| 
D|-2-----2---2---------------------------------------------4----------------| 
A|-3-----3---3-------------------5-5----------------------------------------| 
E|--------------------------------------------------------------------------| 

                                      do intro 

e|-0---------------0-1------------------1-3-8~-8-7-----7-7-5-----5-3-1-0-3~--1-3-7/8~-| 
B|-1---1-0-3-1-1-3-----1---1---5---3--5----------------0---------0---------3~---------| 
G|---0-------------------2---2-4---4-----------------0---------0----------------------| 
D|-2-----2---2-------------------------------------0---------0------------------------| 
A|-3-----3---3-----------------5---5--------------------------------------------------| 
E|-----------------------------------0------------------------------------------------| 


 Chorus 

e|--8-7-5---------5-7-7-5---------3-5-5--3-------0-2-0---2-0-----0---0-0-0-1-1-1---| 
B|--7-----8-7-5-7---------7-5-5-6----------5-3-3-------3-----3-0-3-3-3-3-3---------| 
G|--7------------------------------------------------------------------------------| 
D|---------------------------------------------------------------------------------| 
A|---------------------------------------------------------------2---2-2-2-2-2-2---| 
E|---------------------------------------------------------------3---3-3-3-3-3-3---| 

    Repeat Verse  
e|-0-----------------0-1---------------------------1-0-----------5-2-0-2~---| 
B|-1---1-0-3-1-1-3-0-----1---1---5-3-2-0---3---3-------------2/3------------| 
G|---0---------------------2---2-4-4-----2---2---4-----2-0------------------| 
D|-2-----2---2---------------------------------------------4----------------| 
A|-3-----3---3-------------------5-5----------------------------------------| 
E|--------------------------------------------------------------------------| 


e|-0---------------0-1------------------1-3-8~-8-7-----7-7-5-----5-3-1-0-3~--1-3-7/8~-| 
B|-1---1-0-3-1-1-3-----1---1---5---3--5----------------0---------0---------3~---------| 
G|---0-------------------2---2-4---4-----------------0---------0----------------------| 
D|-2-----2---2-------------------------------------0---------0------------------------| 
A|-3-----3---3-----------------5---5--------------------------------------------------| 
E|-----------------------------------0------------------------------------------------| 

  


  
 Ikaw lamang ang aking iibigin 
 Magpakailanman 

 Ang pag-ibig ko sa 'yo ay tunay 
 Nais ko sanang patunayan 
 Huwag ka nang mag-alinlangan 
 Ang pag-ibig ko'y hindi kukupas 
 Tulad din ng umaga 
 May pag-asang sumisikat 

 Chorus: 
 Ang ating buhay 
 Maikli aking hirang 
 Kung kaya't kailangan ng pagsuyong wagas 
 Kailanman 

 Ang sumpa ko sa iyo'y asahan 
 Ikaw lamang ang aking iibigin mapakailanman 

 Chorus: 
 Ang ating buhay 
 Maikli aking hirang 
 Kung kaya't kailangan ng pagsuyong wagas 
 Kailanman 

 Ang sumpa ko sa iyo'y asahan 
 Ikaw lamang ang aking iibigin 
 Magpakailanman 
  



************************************ 

| /   slide up 
| \   slide down 
| h   hammer-on 
| p   pull-off 
| ~   vibrato 
| +   harmonic 
| x   Mute note 
| b   Bend 
| pb  Pre-bend 
| br  Bend release 
| pbr Pre-bend release 
| brb Bend release bend 

************************************ 
		  

See also:

tabs Ira! - Poço de Sensibilidade (Solo - Acustico Mtv) tabs Deep Purple - Smoke On The Water tabs Deep Purple - Smoke on the water (intro) tabs Ira! - Eu Quero Sempre Mais (Com Pitty, intro) tabs Deep Purple - Smoke on the Water (ver. 2) tabs Deep Purple - Knocking At Your Back Door
e-chords

Other versions:

tabs Pilita Corrales - Gaano Ko Ikaw Kamahal
auto scroll beats size up size down change color hide chords drawings
tab show chords e-chords YouTube Clip e-chords hide all tabs e-chords go to top tab

share