Pearl Jam

home > Pearl Jam

Donīt Believe in Xmans Tab

Pearl Jam

Difficulty: BeginnerBeginner

tuner correct add songbook print version text version save to e-mail
chordsukulelecavacokeyboardtabbassdrumsharmonicsflute Guitar Pro
chords

Donīt Believe in Xmans

  		 
Intro: 
-|---------------------------------------------------------------------------- 
-|---------------------------------------------------------------------------- 
-|--------------------------------------------------------------7---7--7------ 
-|-9-9-11-9--9-9-11-9--7-7-9-7--7-7-9-7---------------------x---6---6--6------ 
-|-7-7-7--7--7-7-7--7--5-5-5-5--5-5-5-5--7-7-9-7--7-7-9-7---x---7---7--7------ 
-|-0-0-0--0--0-0-0--0--------------------5-5-5-5--5-5-5-5-------0---0--0------ 
                                          ..                                   
Verse: 
-|---------------------------------------------------------------------------- 
-|---------------------------------------------------------------------------- 
-|---------------------------------------------------------------------------- 
-|------------------------------------x-----------x--------------------------- 
-|------------------------------------x-----------x--------------------------- 
-|---5*----------5*-5*-----------5*-------5*----------5*---------------------- 
   Fill A (played under verses)                                                
 
Chorus: 
-|---------------------------------------------------------------------------- 
-|---------------------------------------------------------------------------- 
-|---------------------------------------------------------------------------- 
-|-7-7-9-7--7-7-9-7--7-7-9-7--7-7-9-7----------------------------------------- 
-|-5-5-5-5--5-5-5-5--5-5-5-5--5-5-5-5---7-7-9-7--7-7-9-7--7-7-9-7--7-7-9-7---- 
-|--------------------------------------5-5-5-5--5-5-5-5--5-5-5-5--5-5-5-5---- 
   I don't believe in xmas..            I don't believe in xmas..              
 
-|---------------------------------------------------------------------------- 
-|---------------------------------------------------------------------------- 
-|-------------------------------------------------------------------7--7-7--- 
-|-9-9-11-9---9-9-11-9---7-7-9-7---7-7-9-7---------------------------6--6-6--- 
-|-7-7-7--7---7-7-7--7---5-5-5-5---5-5-5-5---7-7-9-7--7-7-9-7--7-7---7--7-7--- 
-|-0-0-0--0---0-0-0--0-----------------------5-5-5-5--5-5-5-5--5-5------------ 
   I don't believe in xmas cuz I didn't get nothin' last year                  
 
Solo Chords: 
-|---------------------------------------------------------------------------- 
-|---------------------------------------------------------------------------- 
-|---------------------------------------------------------------------------- 
-|---------------------------------------------------------------------------- 
-|-7-7-9-7--7-7-9-7--7-7-9-7--7-7-9-7---7-7-9-7--7-7-9-7--7-7-9-7--7-7-9-7---- 
-|-5-5-5-5--5-5-5-5--5-5-5-5--5-5-5-5---5-5-5-5--5-5-5-5--5-5-5-5--5-5-5-5---- 
   Rhy Fig 2 (played under solos)                                              
 
-|---------------------------------------------------------------------------- 
-|---------------------------------------------------------------------------- 
-|---------------------------------------------------------------------------- 
-|--7-7-9-7--7-7-9-7--7-7-9-7--7-7-9-7---------------------------------------- 
-|--5-5-5-5--5-5-5-5--5-5-5-5--5-5-5-5---7-7-9-7---7-7-9-7--7-7-9-7--7-7-9-7-- 
-|---------------------------------------5-5-5-5---5-5-5-5--5-5-5-5--5-5-5-5-- 
                                                                               
 
-|---------------------------------------------------------------------------- 
-|---------------------------------------------------------------------------- 
-|-----------------------------------------------------------------7---7-7---- 
-|--9-9-11-9--9-9-11-9---7-7-9-7--7-7-9-7----------------------x---6---6-6---- 
-|--7-7-7--7--7-7-7--7---5-5-5-5--5-5-5-5---7-7-9-7--7-7-9-7---x---7---7-7---- 
-|------------------------------------------5-5-5-5--5-5-5-5------------------ 
    w/ fill B                                                  end Rhy Fig 2   
 
Solo: 
-|-8p7p5---------8p7p5----------8p7p5---------8p7p5--------------------------- 
-|-------8p7p5----------8p7p5----------8p7p5---------8p7p5---8--8b10----8----- 
-|---------------------------------------------------------------------------- 
-|---------------------------------------------------------------------------- 
-|---------------------------------------------------------------------------- 
-|---------------------------------------------------------------------------- 
                                                                               
 
-|----------------------------------------5-------5------5-------------------- 
-|-5------5-------------------------------------5------5----5-------5---5---5- 
-|----7------7--5--7--5-----7--5-7----5------7b-----7b------7b--7b--7b--7b---- 
-|-----------------------7---------7----7------------------------------------- 
-|---------------------------------------------------------------------------- 
-|---------------------------------------------------------------------------- 
                                                                               
 
-|---------------------------------------------------------------------------- 
-|--------------------------------------------------------------------5-5--5-- 
-|-7b--7b9p5---5-7---5-7-5---5----5-7br-p5---6-5h6---5----5---4h5-----7b---7b- 
-|-----------7-----7-------7---7-----------7-------7---7----7-----7----------- 
-|---------------------------------------------------------------------------- 
-|---------------------------------------------------------------------------- 
                                                                               
 
-|------5---5--5-------------------------------------------------------------- 
-|-5--5---8------5------------------------------------------------------------ 
-|-7b--------------7b-7p5-7-5----7b--7b-7b-5-7-5---5--5----------------------- 
-|----------------------------7------------------7------7-5-0-5-0------------- 
-|----------------------------------------------------------------0-3-0------- 
-|---------------------------------------------------------------------------- 
                                                                               
                                           End: 
-|-------------------------------------|-|----------------5------------------- 
-|-------------------------------------|-|--------------5---8b---5------------ 
-|-------------------------------------|-|-----------7b----------------------- 
-|-------------------------------------|-|---7------------------------7------- 
-|-5b6r5p3-p0-5-5b7-0-5b6r5p3p0--------|-|---7------------------------7------- 
-|------------------------------5------|-|---5------------------------5------- 
                                                                               
 
Fill B: 
-|---------------------------------------------------------------------------- 
-|---------------------------------------------------------------------------- 
-|--x---7-7---7-7-----x---5-5--5-5-----------------------x---7-7-------------- 
-|--x---6-6---6-6-----x---4-4--4-4-----x-----------------x---6-6-------------- 
-|--x---7-7---7-7-----x---5-5--5-5-----x---7--7--7--7--------7-7-------------- 
-|------0-0---0-0--------------------------5--5--5--5--------0-0-------------- 
 
 
_______________________________________________________ 
Contribuiįão: Henrique Fairbancks([email protected]) 

	  

Full key step upFull key step up
Half key step upHalf key step up
Half key step downHalf key step down
Full key step downFull key step down
Search Paypal
auto scroll beats size up size down change color hide chords drawings
tab show chords e-chords YouTube Clip e-chords hide all tabs e-chords go to top tab