Panda

Narcisista Por Exelencia (intro)

Panda

tabs Advanced advanced

by  ROCKDRIGO.D.E.P

save to print version add songbook text version e-mail correct tuner
chordsukulelecavacokeyboardtabbassdrumsharmonicaflute Guitar Pro
close

there isn't a video lesson for this song

chords

Narcisista Por Exelencia (intro)

	  		E ---------------------------------------- 
B ---------------------------------------- 
G ---------------------------------------- 
D ---------------------------------------- 
A ---------------5-5---------------5-5- 
E -3-3-1-3-3-------3-3-1-3-3------- 

E ------------------------------------------- 
B ------------------------------------------- 
G ------------------------------------------- 
D ------------------------------------------- 
A -6-6----6-6-5-5--6-6-----6-6-5-5-- 
E -------6-------------------6-------------- 


         X2 
		  

See also:

tabs Panda - Un Tipo De Indulgencia tabs Panda - Ya no Jalaba tabs Panda - El Cuello Perfecto tabs Panda - Si Supieras tabs Loukass - Hombre Lobo tabs Loukass - La Torcida
e-chords

Other versions:

tabs Panda - Narcisista Por Exelencia (intro)
auto scroll beats size up size down change color hide chords drawings
tab show chords e-chords YouTube Clip e-chords hide all tabs e-chords go to top tab

share