Paco de Lucía

El tempul

Paco de Lucía

tabs Expert expert

by  EUROPEU

save to print version add songbook text version e-mail correct tuner
chordsukulelecavacokeyboardtabbassdrumsharmonicaflute Guitar Pro
close

there isn't a video lesson for this song

chords

El tempul

	  		() 
                                                                     
E||------------|------------|-----------|-------------|------------| 
B||------------|------------|-----------|-------------|------------| 
G||--------2-3-|--------0-3-|-----------|---------0-3-|--------0-3-| 
D||--2---3-----|--2---3-----|--2---0----|---0-2-3-----|--2---3-----| 
A||------------|------------|--0-----4--|-------------|------------| 
E||--0---------|--0---------|-----------|-------------|--0---------| 
 
 
                                                                           
------------|-----------|----------|--------0-2-|--------0-2-|-----------| 
------------|-----------|----------|--2---3-----|--2---3-----|--2---0----| 
--------0-3-|-----------|----------|--1---------|--1---------|--0-----2--| 
--2---3-----|--2---0----|----------|--0---------|--0---------|--2--------| 
------------|--0-----4--|-------0--|------------|------------|--0--------| 
--0---------|-----------|----0-----|------------|------------|-----------| 
 
 
                                                                   
---------0-2-|--------0-2-|--------0-2-|-----------|-------0-----| 
---0-2-3-----|--2---3-----|--2---3-----|--2---0----|---------3-2-| 
-------------|--1---------|--1---------|--0-----2--|-------------| 
-------------|--0---------|--0---------|--2--------|-------------| 
-------------|------------|------------|--0--------|-------------| 
-------------|------------|------------|-----------|----0--------| 
 
 
                                                                         
--------------|--------------|-----------|--------------|--------------| 
--3-----3-1-0-|--1-----1-0---|--0--------|--0-----3-1-0-|--1-----1-----| 
--3-----------|--0---------2-|-----------|--------------|--0-------3-2-| 
--------------|--------------|--1--------|--1-----------|--------------| 
--------------|-----3--------|-----------|--2-----------|-----3--------| 
-----1--------|--------------|-----2--2--|-----2--------|--------------| 
 
 
                                                                                
--------------|-----------|---------|--------------|--------------|-----------| 
--------------|-----------|---------|--------------|--1-3-1-----1-|-----------| 
--3-----3-2-1-|--2--------|---------|--2-0---0-2-3-|--------3-2---|--3--------| 
--0-----------|--------2--|---------|------3-------|--------------|--0--------| 
--------------|-----4-----|--0------|--------------|--------------|-----------| 
-----1--------|-----------|---------|--------------|--------------|-----1--1--| 
 
 
                                                                               
----------0---|------------|------------|-----------|---------|--------------| 
----3-2-3---3-|--1-----0-1-|------------|-----------|---------|--3-----------| 
--------------|--0---------|--3-----2-3-|--2--------|---------|----3-------3-| 
--------------|------------|--0---------|--------2--|---------|------3---3---| 
--1-----------|-----3------|------------|-----4-----|--0------|--------1-----| 
--------------|------------|-----1------|-----------|---------|--------------| 
 
 
                                                                       
--------------|------------|-----------|--------------|--------------| 
--3-----------|-----2-2-2--|-----2-----|--3-----------|--3-----------| 
----3-------3-|--2--2-2-2--|-----2-----|----3-------3-|----3-------3-| 
------3---3---|-----2-2-2--|-----2-----|------3---3---|------3---3---| 
--------1-----|-----0-0-0--|--0-----0--|--------1-----|--------1-----| 
--------------|------------|-----------|--------------|--------------| 
 
 
                                                                        
------------|------------|--------------|--------------|--------------| 
-----2-2-2--|--2---------|------1-------|--------------|--------------| 
--2--2-2-2--|--2-----0-1-|--2-------3---|--2---0-------|--------------| 
-----2-2-2--|--2---3-----|--------------|----------3---|--2-0---------| 
-----0-0-0--|--0---------|----3---3---3-|----3---3---3-|------3-0---0-| 
------------|------------|--------------|--------------|----------1---| 
 
 
                                                                           
--------------|--------------|--------------|--------------|-------------| 
----3-1-------|--------------|----------3---|--2-----------|-------------| 
--------3-2-0-|------0---2---|--3-----------|----3-2-------|---------0-1-| 
--------------|--3-----------|----3---3---3-|--------2---2-|-------3-----| 
--3-----------|----3---3---3-|------1-------|----------4---|--0--0-------| 
--------------|--------------|--------------|--------------|-------------| 
 
 
                                                                          
--------------|--------------|--------------|------------|----------1---| 
------1-------|--------------|--------------|----------1-|--3-----------| 
--2-------3---|--2---0-------|--------------|------2-3---|----3---3-----| 
--------------|----------3---|--2-0---------|------------|------3-----3-| 
----3---3---3-|----3---3---3-|------3-0---0-|--0---------|--------------| 
--------------|--------------|----------1---|------------|--------------| 
 
 
                                                                             
--0-----------|--------------|----------|---------|------------|--0--------| 
----------3---|--2-----------|----------|---------|--------1-3-|-----------| 
----3---3---3-|----3-2-------|--2-------|---------|------3-----|-----2-----| 
------3-------|--------2---2-|----------|--0------|--0---------|--------2--| 
--------------|----------4---|-------0--|---------|--1---------|-----------| 
--------------|--------------|----------|---------|------------|-----------| 
 
 
                                                                                 
-----5----|-----0-----|----------|-----------|----------|-----------|----------| 
-----5----|--3-----3--|----------|--1--3--1--|----------|-----------|----------| 
-----6----|--3--------|--5--3----|--0--------|--3--2----|--3--5--3--|--2--1----| 
-----7----|--3--------|----------|--2--------|----------|--3--------|----------| 
--0--7----|--1--------|----------|--3--------|----------|--5--------|----------| 
-----5----|-----------|----------|-----------|----------|-----------|----------| 
 
 
                                                                       
---------|-------------|-----0-----|----------|-----------|----------| 
---------|-------------|--3-----3--|----------|--1--3--1--|----------| 
--2------|--2--2-2-2-2-|--3--------|--5--3----|--0--------|--3--2----| 
--2------|--2----------|--3--------|----------|--2--------|----------| 
--4------|--3----------|--1--------|----------|--3--------|----------| 
--0------|--0----------|-----------|----------|-----------|----------| 
 
 
                                                                                
-----------|----------|---------|----------|-----------|----------|-----------| 
-----------|----------|---------|----------|-----------|----------|-----------| 
--3--5--3--|--2--1----|--2------|--2-------|--2--3--2--|--0-------|--0--------| 
--3--------|----------|--2------|--2----2--|--0--------|-----4----|--2---3-2--| 
--5--------|----------|--4------|--3----4--|--2--------|----------|--4--------| 
-----------|----------|--0------|--0----0--|-----------|----------|--0--------| 
 
 
                                                                            
-------------|-----------|----------|-----------|-------------|--0--1--0--| 
-------------|-----------|----------|-----------|-----0-0-0-0-|--0--------| 
-------------|--2--3--2--|--0-------|--0--------|-------------|--2--------| 
--2--2-2-2-2-|--0--------|-----4----|--2---3-2--|--2----------|--3--------| 
-------------|--2--------|----------|--4--------|-------------|-----------| 
-------------|-----------|----------|--0--------|-------------|-----------| 
 
 
                                                                         
----------|-----------|-------------|--0--1--0--|----------|-----------| 
--3--2----|--3---1-0--|--0--0-0-0-0-|--0--------|--3--2----|--3---1-0--| 
----------|--1--------|-------------|--2--------|----------|--1--------| 
----------|--2--------|-------------|--3--------|----------|--2--------| 
----------|--2--------|-------------|-----------|----------|--2--------| 
----------|-----------|--0----------|-----------|----------|-----------| 
 
 
                                                                       
-------0---|-----------|-----------|----------|----------|-----------| 
--0------3-|--1----3-1-|-----------|----------|----------|--------0--| 
-----------|--0--------|--3----5-3-|--2-------|--2-------|--2--2-----| 
-----------|--2--------|--3--------|--2-------|--2----2--|--2--------| 
-----------|--3--------|--5--------|--4-------|--4-------|--3--------| 
--0--------|-----------|-----------|--0----0--|----------|--0--------| 
 
 
                                                                           
--------0-1-|--0----------|-----------|--0--1--0--|----------|-----------| 
--1---3-----|-----1-------|--1-----3--|--1--------|--3--2----|--3---1-0--| 
--2---------|-------2---2-|-----2-----|--2--------|--2-------|--1--------| 
--2---------|---------2---|-----2-----|--2--------|--2-------|--2--------| 
--0---------|-------------|-----------|--0--------|--0-------|--2--------| 
--0---------|-------------|-----------|--0--------|----------|--0--------| 
 
 
                                                                          
-----------|-----------|----------|-------------|-----------|-----0-----| 
--0--------|-----------|--0--1----|--3----------|--------1--|--3-----3--| 
-----1-----|--1--1--2--|--1-------|-----1-------|--1--------|--1--------| 
-----2--2--|--0--------|--0-------|-------2---2-|-----2-----|--2--------| 
-----2-----|--2--------|--2-------|---------2---|-----2-----|--2--------| 
-----------|--0--------|--0-------|-------------|-----------|--0--------| 
 
 
                                                                          
----------|-----------|----------|-----------|--------0-1-|--0----------| 
--1--0----|--1---0----|----------|--------0--|--1---3-----|-----1-------| 
--1-------|--2-----2--|----------|--2--2-----|--2---------|-------2---2-| 
--2-------|--2--------|-------2--|--2--------|--2---------|---------2---| 
----------|--0--------|----0-----|--3--------|--0---------|-------------| 
----------|--0--------|----0-----|--0--------|--0---------|-------------| 
 
 
                                                                          
--0-----0--|--------0--|--5---3-----|--3--1----|---------|--1-0---0-1-3-| 
--1--------|--2--3-----|--5-----6-5-|--3-------|---------|------3-------| 
-----2-----|--0--------|--6---------|--2-------|----2----|--------------| 
-----2-----|--2--------|--5---------|----------|---------|--------------| 
-----------|--0--------|--7---------|--0-------|----0----|--------------| 
-----------|--0--------|--5---------|----------|---------|--------------| 
 
 
                                                                            
--5-3-1-0---1-|--0-------0-1-|--3-1-0-----0-|------------0-|--1-0---------| 
----------3---|----3-1-3-----|--------3-1---|--3-1-0-1-3---|------3-1-0-3-| 
--------------|--------------|--------------|--------------|--------------| 
--------------|--------------|--------------|--------------|--------------| 
--------------|--------------|--------------|--------------|--------------| 
--------------|--------------|--------------|--------------|--------------| 
 
 
                                                                            
--------------|------------0-|--1-0---0-1-3-|--5-3-1-0---1-|--0-------0-1-| 
--1-0---------|--0-1-2-3-4---|------3-------|----------3---|----3-1-3-----| 
------2-1-2-3-|--------------|--------------|--------------|--------------| 
--------------|--------------|--------------|--------------|--------------| 
--------------|--------------|--------------|--------------|--------------| 
--------------|--------------|--------------|--------------|--------------| 
 
 
                                                                            
--3-1-0-----0-|------------0-|--1-0---------|--------------|------------0-| 
--------3-1---|--3-1-0-1-3---|------3-1-0---|--------------|----------1---| 
--------------|--------------|------------2-|--1-----------|--------2-----| 
--------------|--------------|--------------|----3-2-0-----|------2-------| 
--------------|--------------|--------------|----------3-2-|--0-3---------| 
--------------|--------------|--------------|--------------|--------------| 
 
 
                       
--5--4----|--5------|| 
-----3----|--5------|| 
-----4----|--5------|| 
-----2----|--7------|| 
----------|--7------|| 
----------|--5------|| 

		  

See also:

tabs Camilo Sesto - No Sabes Cuanto Te Quiero tabs Silvio Rodriguez - Romanza De La Luna tabs Paco de Lucía - El vito tabs La Fuga - Farmacia De Guardia tabs La rondalla de saltillo - Morir De Amor tabs Silvio Rodriguez - Rabo De Nube
e-chords

Other versions:

tabs Paco de Lucía - El tempul
auto scroll beats size up size down change color hide chords drawings
tab show chords e-chords YouTube Clip e-chords hide all tabs e-chords go to top tab

share