Owen

No Language

Owen

tabs

by  TAMAMOREIRA

save to print version add songbook text version e-mail correct tuner
chordsukulelecavacokeyboardtabbassdrumsharmonicaflute Guitar Pro
close

there isn't a video lesson for this song

chords

No Language

	  		
Tuning: F A C G C e 


Intro 

  hold 
e|-----|-----------------------------------------------------------------| 
C|-----|------------0----------------------------------0-----------------| 
G|-----|------------0--0-------0-----------------------0--0-------0------| 
C|--0--|---------------2/4--4--0--------------------------2/4--4-----0---|    
A|--3--|--3--2--------------------0-----------3--2-----------------------| 
F|--4--|--------2-----------------0----2--4---------2--------------------| 

e|-----------------------------------------------------------------------| 
C|------------------0----------------------------------0-----------------| 
G|------------------0--0-------0-----------------------0--0-------0------| 
C|---------------------2/4--4--0--------------------------2/4--4-----0---|    
A|---------3--2-------------------0-----------3--2-----------------------| 
F|--2--4---------2----------------0----2--4---------2--------------------| 


Verse 

e|----------------------------------------------------------------------------------------| 
C|--------------------------------------0--0--------0------------------------------0--0---| 
G|--0---------2-------2---------2-------1--1----0----0---2-------2---------2-------1--1---| 
C|--4----x-x--2--x-x--2----x-x--2--x-x--0--0----4-----0--2--x-x--2----x-x--2--x-x--0--0---|  X2 
A|--3----x-x--2--x-x--2----x-x--2--x-x--0--0----3--------2--x-x--2----x-x--2--x-x--0--0---| 
F|--4----x-x--2--x-x--2/4--x-x--2--x-x--0--0----4--------2--x-x--2/4--x-x--2--x-x--0--0---| 

  end on: 
e|------------------------| 
B|------------------------| 
G|--2---4---4-4-4/5-5-5---| 
D|--2---------------------| 
A|--2---------------------| 
F|--2---------------------| 


Chorus 

e|----------------------------------------------------------------------------------------------------------| 
C|----------------------------------------------------------------------------------------------------------| 
G|------0---2--2-------------0---------0--0----0-0-0--0-0-0--0-0-0--0-0-0--0-0-0--0-0--4---4-4-4-4/5--5-5---| 
C|--4-------2--2----------0---------0-----2/4--4-4-2--2-2-4--4-4-2--2-2-4--4-4-2--2-2-----------------------| 
A|--3-------2--2----2-----------2-------------------------3--3-3-2--2-2-3--3-3-2--2-2-----------------------| 
F|--4-------2--2-------2------------------------------------------------4--4-4-2--2-2-----------------------| 

e|------------------------------------------------------------------------------------------------| 
C|-------------------------------------------------------------------------------------0-0--------| 
G|------0---2--2-------------0---------0--0----0-0-0--0-0-0--0-0-0--0-0-0--0-0-0--0-0--1-1----4---| 
C|--4-------2--2----------0---------0-----2/4--4-4-2--2-2-4--4-4-2--2-2-4--4-4-2--2-2--0-0----2---| 
A|--3-------2--2----2-----------2-------------------------3--3-3-2--2-2-3--3-3-2--2-2--0-0----2---| 
F|--4-------2--2-------2------------------------------------------------4--4-4-2--2-2--0-0----2---| 


Bridge 

e|-------------------------------------------------------------------------------| 
B|--0----0-0-0-0-0-0--0-0-0----0-0-0--0-0-0-0---0--------------------------------| 
G|--4/5--5-5-5-5-5-4--4-4-4/5--5-5-4--4-4-0-2---0----------------------0---------| 
D|--------------------------------------------------4-5-7-0----2-0-2-4-------0---| 
A|-------------------------------------------------------------------------0-----| 
F|-------------------------------------------------------------------------------| 

e|--------8---10-0-10/12/10/8----8-8---------3--5--3----------------------------------------| 
B|------7---------------------11-----9------4---------4----0--------------------------------| 
G|--5/9------------------------------------5-----------------4-2-0-----0--------------------| 
D|----------------------------------------0------------------------4-5---2--4-2-0-----0-----| 
A|--------------------------------------------------------------------------------2-3---0---| 
F|------------------------------------------------------------------------------------------| 


Verse 

e|----------------------------------------------------------------------------------------| 
C|--------------------------------------0--0--------0------------------------------0--0---| 
G|--0---------2-------2---------2-------1--1----0----0---2-------2---------2-------1--1---| 
C|--4----x-x--2--x-x--2----x-x--2--x-x--0--0----4-----0--2--x-x--2----x-x--2--x-x--0--0---|  X2 
A|--3----x-x--2--x-x--2----x-x--2--x-x--0--0----3--------2--x-x--2----x-x--2--x-x--0--0---| 
F|--4----x-x--2--x-x--2/4--x-x--2--x-x--0--0----4--------2--x-x--2/4--x-x--2--x-x--0--0---| 

  end on: 
e|------------------------| 
B|------------------------| 
G|--2---4---4-4-4/5-5-5---| 
D|--2---------------------| 
A|--2---------------------| 
F|--2---------------------| 


Chorus 

e|----------------------------------------------------------------------------------------------------------| 
C|----------------------------------------------------------------------------------------------------------| 
G|------0---2--2-------------0---------0--0----0-0-0--0-0-0--0-0-0--0-0-0--0-0-0--0-0--4---4-4-4-4/5--5-5---| 
C|--4-------2--2----------0---------0-----2/4--4-4-2--2-2-4--4-4-2--2-2-4--4-4-2--2-2-----------------------| 
A|--3-------2--2----2-----------2-------------------------3--3-3-2--2-2-3--3-3-2--2-2-----------------------| 
F|--4-------2--2-------2------------------------------------------------4--4-4-2--2-2-----------------------| 

e|------------------------------------------------------------------------------------------------| 
C|-------------------------------------------------------------------------------------0-0--------| 
G|------0---2--2-------------0---------0--0----0-0-0--0-0-0--0-0-0--0-0-0--0-0-0--0-0--1-1----4---| 
C|--4-------2--2----------0---------0-----2/4--4-4-2--2-2-4--4-4-2--2-2-4--4-4-2--2-2--0-0----2---| 
A|--3-------2--2----2-----------2-------------------------3--3-3-2--2-2-3--3-3-2--2-2--0-0----2---| 
F|--4-------2--2-------2------------------------------------------------4--4-4-2--2-2--0-0----2---| 


Outro 

e|---------------------------------|     e|----------------------------| 
B|-----0--------------0------------|     B|-----0--------------0-------| 
G|--------0-----------0----0-1--1--|     G|--------0-----------0-------| 
D|-----------2--4--------2---0--0--| X3  D|-----------2--4---------2---| 
A|--2--------------2-----2---0--0--|     A|--2--------------2------2---| 
F|--3--------------------2---0--0--|     E|--3---------------------2---| 

e|-----0-------------3---------------0-----------------------------------| 
B|--------2--0-------0------------------2--0---------0----0--------------| 
G|--------------4/5---------------------------4/5--0-0/2--0-------0------| 
D|--0--------------------0--------0--------------------------4/5-----0---|  X2.5 
A|--0------------------------2----0--------------------------------------| 
F|--0------------------------2----0--------------------------------------| 



************************************ 

| x  Dead note 
| /  Slide up 

************************************ 
		  

See also:

tabs Owen - The Only Child Of Aergia tabs Keaton Henson - Sweetheart What Have You Done To Us tabs Keaton Henson - Lying To You Tab tabs Daughter - Amsterdam tabs Daughter - Dreams Of William tabs Nina Nesbitt - Babylon
e-chords

Other versions:

tabs Owen - No Language
auto scroll beats size up size down change color hide chords drawings
tab show chords e-chords YouTube Clip e-chords hide all tabs e-chords go to top tab

share