Owen

Headphoned

Owen

tabs

by  JOAOEWERTON

save to print version add songbook text version e-mail correct tuner
chordsukulelecavacokeyboardtabbassdrumsharmonicaflute Guitar Pro
close

there isn't a video lesson for this song

chords

Headphoned

	  		Tuning: CGEGBD 

Intro x1 

D|----0-----------------------------------|  
B|----------------0-----------------------| 
G|--------0----h2---0--------------0------|  x3  
E|------0---h2--------0--------0h2---2----| 
G|--------------------------h4---------0--| 
C|--0--------------------h4---------------|  

D|----0-------------------------------------| 
B|----------------0-------------------------| 
G|--------0----h2---0h2p0--------------0----| 
E|------0---h2------------0--------0h2---2--| 
G|------------------------------h4----------| 
C|--0------------------------h4-------------| 

verse 1  

"I already read this room" 

D|----0-----------------------------------|  
B|----------------0-----------------------| 
G|--------0----h2---0--------------0------|  x3  
E|------0---h2--------0--------0h2---2----| 
G|--------------------------h4---------0--| 
C|--0--------------------h4---------------|  

D|----0-------------------------------------| 
B|----------------0-------------------------| 
G|--------0----h2---0h2p0--------------0----| 
E|------0---h2------------0--------0h2---2--| 
G|------------------------------h4----------| 
C|--0------------------------h4-------------| 

"It's safe to assume" 

D|----0-----------------------------------|  
B|----------------0-----------------------| 
G|--------0----h2---0--------------0------|  x3  
E|------0---h2--------0--------0h2---2----| 
G|--------------------------h4---------0--| 
C|--0--------------------h4---------------|  

D|----0---------------------------------|  
B|----------------0---------------------| 
G|--------0----h2---0--------------0----|   
E|------0---h2--------0--------0h2---2--| 
G|--------------------------h4----------| 
C|--0--------------------h4-------------| 

Break 

E|-----------------| 
C|--------0--------| 
G|------------0----| 
E|------5---5---2--| 
G|----4------------| 
C|--2--------------| 

verse 2 

"Headphoned/All alone" 

D|----0-----------------------------------|  
B|----------------0-----------------------| 
G|--------0----h2---0--------------0------|  x3  
E|------0---h2--------0--------0h2---2----| 
G|--------------------------h4---------0--| 
C|--0--------------------h4---------------|  

D|----0---------------------------------|  
B|----------------0---------------------| 
G|--------0----h2---0--------------0----|   
E|------0---h2--------0--------0h2---2--| 
G|--------------------------h4----------| 
C|--0--------------------h4-------------| 

"No roads lead to Rome" 

D|----0-----------------------------------|  
B|----------------0-----------------------| 
G|--------0----h2---0--------------0------|  x3  
E|------0---h2--------0--------0h2---2----| 
G|--------------------------h4---------0--| 
C|--0--------------------h4---------------|  

D|----0-------------------------------------| 
B|----------------0-------------------------| 
G|--------0----h2---0h2p0--------------0----| 
E|------0---h2------------0--------0h2---2--| 
G|------------------------------h4----------| 
C|--0------------------------h4-------------| 

Break 

E|-----------------| 
C|--------0--------| 
G|------------0----| 
E|------5---5---2--| 
G|----4------------| 
C|--2--------------| 

Chorus 

"I'm playing hide and seek" 
E|------------------------------------------------------------------------------------------| 
C|----------------------0--------------------------0--------------------------0-------------| 
G|------0-------------------0-------0------------------0-------0------------------0---------| 
E|--------0~----------5---5---2-------0~---------5---5---2-------0~---------5---5---2--2h3--| 
G|----0------5/7----4-------------0------5/7---4-------------4------5/7---4------------4----| 
C|--0-------------2-------------0------------2-------------4------------2--------------4----| 

Break 

D|----0-----------------------------------|  
B|----------------0-----------------------| 
G|--------0----h2---0--------------0------|  x3  
E|------0---h2--------0--------0h2---2----| 
G|--------------------------h4---------0--| 
C|--0--------------------h4---------------|  

D|----0-------------------------------------| 
B|----------------0-------------------------| 
G|--------0----h2---0h2p0--------------0----| 
E|------0---h2------------0--------0h2---2--| 
G|------------------------------h4----------| 
C|--0------------------------h4-------------| 

verse 3 

"I was doing nothing long before you were even bored" 

D|----0-----------------------------------|  
B|----------------0-----------------------| 
G|--------0----h2---0--------------0------|  x3  
E|------0---h2--------0--------0h2---2----| 
G|--------------------------h4---------0--| 
C|--0--------------------h4---------------|  

D|----0---------------------------------|  
B|----------------0---------------------| 
G|--------0----h2---0--------------0----|   
E|------0---h2--------0--------0h2---2--| 
G|--------------------------h4----------| 
C|--0--------------------h4-------------| 

"I'm still doing nothing" 

D|----0-----------------------------------|  
B|----------------0-----------------------| 
G|--------0----h2---0--------------0------|  x3  
E|------0---h2--------0--------0h2---2----| 
G|--------------------------h4---------0--| 
C|--0--------------------h4---------------|  

D|----0---------------------------------|  
B|----------------0---------------------| 
G|--------0----h2---0--------------0----|   
E|------0---h2--------0--------0h2---2--| 
G|--------------------------h4----------| 
C|--0--------------------h4-------------| 

Break 

E|-----------------| 
C|--------0--------| 
G|------------0----| 
E|------5---5---2--| 
G|----4------------| 
C|--2--------------| 

Chorus 

"I'm still playing hide and seek" 

E|-------------------------------------------------------------------------------------| 
C|----------------------0--------------------------0--------------------------0--------| 
G|------0-------------------0-------0------------------0-------0------------------0----| 
E|--------0~----------5---5---2-------0~---------5---5---2-------0~---------5---5---2--| 
G|----0------5/7----4-------------0------5/7---4-------------0------5/7---4------------| 
C|--0-------------2-------------0------------2-------------0------------2--------------| 


E|---------------------------0--| 
C|---------------------0--------| 
G|------0------------------0----| 
E|--------0~---------5---5------| 
G|----4------5/7---4------------| 
C|--4------------2--------------| 

"Under your sheets" 

E|-------------------------------------------------------------------------------------| 
C|----------------------0--------------------------0--------------------------0--------| 
G|------0-------------------0-------0------------------0-------0------------------0----| 
E|--------0~----------5---5---2-------0~---------5---5---2-------0~---------5---5---2--| 
G|----0------5/7----4-------------0------5/7---4-------------4------5/7---4------------| 
C|--0-------------2-------------0------------2-------------4------------2--------------| 

Post-Chorus 

"Here's to new sights, new tastes..." 

E|----------------------| 
C|-------------0--------| 
G|------------------0~--| 
E|--2h3~-2~--5---0--0~--| 
G|--4~---4~--4------2~--| 
C|--4~---3~--2------1~--| 

verse 4 

"Headphoned/All alone" 

D|----0-----------------------------------|  
B|----------------0-----------------------| 
G|--------0----h2---0--------------0------|  x3  
E|------0---h2--------0--------0h2---2----| 
G|--------------------------h4---------0--| 
C|--0--------------------h4---------------|  

D|----0-------------------------------------| 
B|----------------0-------------------------| 
G|--------0----h2---0h2p0--------------0----| 
E|------0---h2------------0--------0h2---2--| 
G|------------------------------h4----------| 
C|--0------------------------h4-------------| 

"No roads lead to Rome" 

D|----0-----------------------------------|  
B|----------------0-----------------------| 
G|--------0----h2---0--------------0------|  x3  
E|------0---h2--------0--------0h2---2----| 
G|--------------------------h4---------0--| 
C|--0--------------------h4---------------|  

D|----0-------------------------------------| 
B|----------------0-------------------------| 
G|--------0----h2---0h2p0--------------0----| 
E|------0---h2------------0--------0h2---2--| 
G|------------------------------h4----------| 
C|--0------------------------h4-------------| 

Break 

E|-----------------| 
C|--------0--------| 
G|------------0----| 
E|------5---5---2--| 
G|----4------------| 
C|--2--------------| 

Chorus 

"I keep playing hide and seek" 

E|-------------------------------------------------------------------------------------| 
C|----------------------0--------------------------0--------------------------0--------| 
G|------0-------------------0-------0------------------0-------0------------------0----| 
E|--------0~----------5---5---2-------0~---------5---5---2-------0~---------5---5---2--| 
G|----0------5/7----4-------------0------5/7---4-------------0------5/7---4------------| 
C|--0-------------2-------------0------------2-------------0------------2--------------| 

E|---------------------------0--| 
C|---------------------0--------| 
G|------0------------------0----| 
E|--------0~---------5---5------| 
G|----4------5/7---4------------| 
C|--4------------2--------------| 

"To finding me" 

E|-------------------------------------------------------------------------------------| 
C|----------------------0--------------------------0--------------------------0--------| 
G|------0-------------------0-------0------------------0-------0------------------0----| 
E|--------0~----------5---5---2-------0~---------5---5---2-------0~---------5---5---2--| 
G|----0------5/7----4-------------0------5/7---4-------------0------5/7---4------------| 
C|--0-------------2-------------0------------2-------------0------------2--------------| 

E|---------------------------0--| 
C|---------------------0--------| 
G|------0------------------0----| 
E|--------0~---------5---5------| 
G|----4------5/7---4------------| 
C|--4------------2--------------| 


E|-------------------------------------------------------------------------------------| 
C|----------------------0--------------------------0--------------------------0--------| 
G|------0-------------------0-------0------------------0-------0------------------0----| 
E|--------0~----------5---5---2-------0~---------5---5---2-------0~---------5---5---2--| 
G|----0------5/7----4-------------0------5/7---4-------------0------5/7---4------------| 
C|--0-------------2-------------0------------2-------------0------------2--------------| 

E|---------------------------0--| 
C|---------------------0--------| 
G|------0------------------0----| 
E|--------0~---------5---5------| 
G|----4------5/7---4------------| 
C|--4------------2--------------| 


E|------------------------------------------------------------------------------------------| 
C|----------------------0--------------------------0--------------------------0-------------| 
G|------0-------------------0-------0------------------0-------0------------------0---------| 
E|--------0~----------5---5---2-------0~---------5---5---2-------0~---------5---5---2--2h3--| 
G|----0------5/7----4-------------0------5/7---4-------------4------5/7---4------------4----| 
C|--0-------------2-------------0------------2-------------4------------2--------------4----| 


************************************ 

| h   Hammer-on 
| p   Pull-off 
| ~   Hold Note 
| /   Slide 

************************************ 
		  

See also:

tabs Daughter - Blue And Grey tabs Keaton Henson - You tabs Daughter - Dreams Of William tabs Daughter - Shallows (acoustic) tabs Skallen Modric - Selalu Ada tabs Fireflight - Stand Up
e-chords

Other versions:

tabs Owen - Headphoned
auto scroll beats size up size down change color hide chords drawings
tab show chords e-chords YouTube Clip e-chords hide all tabs e-chords go to top tab

share