Odious Mortem

Third Pawn

Odious Mortem

tabs

by  SABRJOAO

save to print version add songbook text version e-mail correct tuner
chordsukulelecavacokeyboardtabbassdrumsharmonicaflute Guitar Pro
close

there isn't a video lesson for this song

chords

Third Pawn

	  		TABULATURE LEGEND: 
                   " - tremolo             h - hammer on 
                   ~ - vibrato             \ - slide down 
                   p - pull off            / - slide down 
                  tr - tremolo picking     ^ - pinch harmonics 
                   = - sustained note      b - bend string 
                p.m. - palm muting         t - tapping 

TUNING: C# G# C# F# A# D# 

Intro 
|-----------------------||-------------------------|-| 
|-----------------------||o-----------------------o|-| 
|-----------------------||-------------------------|-| 
|-5--2--1--2-5--2--1--2-||-------------------------|-| 
|-7--4--3--4-7--4--3--4-||o-----------------------o|-| 
|-----------------------||--555555222222111111222--|-| 
|                       |   .....................   | 
|-----------------------||-------------------------|-| 
|-----------------------||o-----------------------o|-| 
|-----------------------||-------------------------|-| 
|-5--2--1--2-5--2--1--2-||-------------------------|-| 
|-7--4--3--4-7--4--3--4-||o-----------------------o|-| 
|-----------------------||--555555222222111111222--|-| 
                            ..................... 

-||-------------------------||-||----------------------------------------|| 
-||o-----------------------o||-||o--------------------------------------o|| 
-||-------------------------||-||----------------------------------------|| 
-||--5-----2-----1-----2----||-||----------------------------------------|| 
-||o-7-----4-----3-----4---o||-||o-7t10..--4t7...-3t6...-4t7...-o|| 
-||-------------------------||-||----------------------------------------|| 
 |                           | |   \____________pick tapping__________/   | 
-||-------------------------||-||----------------------------------------|| 
-||o-----------------------o||-||o--------------------------------------o|| 
-||-------------------------||-||--9t12..--6t9...-5t8...-6t9...--|| 
-||-------------------------||-||----------------------------------------|| 
-||o-----------------------o||-||o--------------------------------------o|| 
-||--555555222222111111222--||-||----------------------------------------|| 
     .....................         \____________pick tapping__________/ 

Riff 1 /both gutiars/ 
|---------------------------|----------------------------| 
|---------------------------|----------------------------| 
|---------------------------|----------------------------| 
|----------222----------222-|----------111----------111--| 
|-------1"-----------1"-----|-------3"-----------3"------| 
|-0"-2"--------0"-2"--------|-0"-2"--------0"-2"---------| 

---------------------------| 
---------------------------| 
---------------------------| 
----------222----------222-| 
-------1"-----------1"-----| 
-0"-2"--------0"-2"--------| 

Outro 
|------------------------------------| 
|------------------------------------| 
|------------------------------------| 
|-------------------------------^----| 
|-------3-----------2-----4--3--3~~--| 
|-0-3-6---4-3-0-2-0---3-2-4--3-------| 
| . . . . . . . . . . . . .  .       | 
|------------------------------------| 
|------------------------------------| 
|------------------------------------| 
|-------------------------------^----| 
|-3-----------------------4--3--3~~--| 
|-3-----------------------4--3-------| 
  .                       .  . 

Riff 2 
||--------------------------------x3-||--------------------------| 
||o-----------------------------------o||--------------------------| 
||-------------------------------------||--------------------------| 
||--------------------------------^----||--------------------------| 
||o-------3-----------2-----4--3--3~~-o||-------3-----------2------| 
||--0-3-6---4-3-0-2-0---3-2-4--3-------||-0-3-6---4-3-0-2-0---3-2--| 
|   . . . . . . . . . . . . .  .        | . . . . . . . . . . . . 
||--------------------------------x3-||--------------------------| 
||o-----------------------------------o||--------------------------| 
||-------------------------------------||--------------------------| 
||--------------------------------^----||--------------------------| 
||o-------3-----------2-----4--3--3~~-o||-------3-----------2------| 
||--0-3-6---4-3-0-2-0---3-2-4--3-------||-0-3-6---4-3-0-2-0---3-2--| 
    . . . . . . . . . . . . .  .          . . . . . . . . . . . . 

Riff 3 
|-------------------------------------------------| 
|-------------------------------------------------| 
|----------------------------------------5~~~-----| 
|-3--2------------------3333333322222222----------| 
|-3--2--3333333322222222--------------------------| 
|-3--2--------------------------------------------| 
|                                                | 
|-------------------------------------------------| 
|-------------------------------------------------| 
|---------------------------------------55555555--| 
|-3--2------------------3333333322222222----------| 
|-3--2--3333333322222222--------------------------| 
|-3--2--------------------------------------------| 

-|---------------------------------------------------------| 
-|------------------------------------------------^--------| 
-|---------------------------------------88888888-7~~~-----| 
-|-3--2------------------6666666655555555------------------| 
-|-3--2--6666666655555555----------------------------------| 
-|-3--2----------------------------------------------------| 
 |                                                        | 
-|---------------------------------------------------------| 
-|---------------------------------------------------------| 
-|---------------------------------------5555555544444444--| 
-|-3--2------------------3333333322222222------------------| 
-|-3--2--3333333322222222----------------------------------| 
-|-3--2----------------------------------------------------| 

-|-------------------------------------------------| 
-|----------------------------------------^--------| 
-|----------------------------------------3~~~-----| 
-|-2--1------------------2222222211111111----------| 
-|-2--1--2222222211111111--------------------------| 
-|-2--1--------------------------------------------| 
 |                                                | 
-|-------------------------------------------------| 
-|-------------------------------------------------| 
-|---------------------------------------33333333--| 
-|-2--1------------------2222222211111111----------| 
-|-2--1--2222222211111111--------------------------| 
-|-2--1--------------------------------------------| 

-|---------------------------------------------------------| 
-|---------------------------------------66666666-(5h6p5)--| 
-|-----------------------4444444433333333------------------| 
-|-2--1--4444444433333333----------------------------------| 
-|-2--1----------------------------------------------------| 
-|-2--1----------------------------------------------------| 
 |                                                        | 
-|---------------------------------------------------------| 
-|---------------------------------------------------------| 
-|---------------------------------------33333333-(1h2p1)--| 
-|-2--1------------------2222222211111111------------------| 
-|-2--1--2222222211111111----------------------------------| 
-|-2--1----------------------------------------------------| 

-|-------------------------------------------------| 
-|-------------------------------------------------| 
-|----------------------------------------5~~~~~---| 
-|-1--2------------------3333333322222222----------| 
-|-1--2--3333333322222222--------------------------| 
-|-1--2--------------------------------------------| 
 |                                                | 
-|-------------------------------------------------| 
-|----------------------------------------^--------| 
-|----------------------------------------5~~~~~---| 
-|-1--2------------------3333333322222222----------| 
-|-1--2--3333333322222222--------------------------| 
-|-1--2--------------------------------------------| 

-|---------------------------------------------------------| 
-|------------------------------------------------^--------| 
-|---------------------------------------88888888-7~~~-----| 
-|-3--2------------------6666666655555555------------------| 
-|-3--2--6666666655555555----------------------------------| 
-|-3--2----------------------------------------------------| 
 |                                                        | 
-|---------------------------------------------------------| 
-|---------------------------------------------------------| 
-|---------------------------------------5555555544444444--| 
-|-3--2------------------3333333322222222------------------| 
-|-3--2--3333333322222222----------------------------------| 
-|-3--2----------------------------------------------------| 

-|-------------------------------------------------| 
-|----------------------------------------^--------| 
-|----------------------------------------3~~~-----| 
-|-2--1------------------2222222211111111----------| 
-|-2--1--2222222211111111--------------------------| 
-|-2--1--------------------------------------------| 
 |                                                | 
-|-------------------------------------------------| 
-|-------------------------------------------------| 
-|---------------------------------------33333333--| 
-|-2--1------------------2222222211111111----------| 
-|-2--1--2222222211111111--------------------------| 
-|-2--1--------------------------------------------| 

-|--------------------------------------------------------| 
-|---------------------------------------66666666-(5h6p5)-| 
-|-----------------------4444444433333333-----------------| 
-|-2--1--4444444433333333---------------------------------| 
-|-2--1---------------------------------------------------| 
-|-2--1---------------------------------------------------| 
 |                                                        | 
-|--------------------------------------------------------| 
-|--------------------------------------------------------| 
-|---------------------------------------33333333-(1h2p1)-| 
-|-2--1------------------2222222211111111-----------------| 
-|-2--1--2222222211111111---------------------------------| 
-|-2--1---------------------------------------------------| 

Riff 4a (x2) 
||-----------------------------------------------------| 
||o----------------------------------------------------| 
||-----------------------------------------------------| 
||--1--2------------1--2--------------------7t10...--| 
||o-1--2--5t8...--1--2--5t8...-4t7...------------| 
||--1--2------------1--2-------------------------------| 
|                                                     | 
||-----------------------------------------------------| 
||o----------------------------------------------------| 
||-----------------------------------------------------| 
||--1--2------------1--2--------------------7t10...--| 
||o-1--2--5t8...--1--2--5t8...-4t7...------------| 
||--1--2------------1--2-------------------------------| 

-|---------------------------------------------------|| 
-|--------------------------------------------------o|| 
-|---------------------------------------------------|| 
-|-3--2--8t11...-2--1------------------------------|| 
-|-3--2------------2--1--5t8...-4t7...-3t6...-o|| 
-|-3--2------------2--1------------------------------|| 
 |                                                    | 
-|---------------------------------------------------|| 
-|--------------------------------------------------o|| 
-|---------------------------------------------------|| 
-|-3--2--8t11...-2--1------------------------------|| 
-|-3--2------------2--1--5t8...-4t7...-3t6...-o|| 
-|-3--2------------2--1------------------------------|| 

Riff 4b 
|----------------------------------------------------| 
|----------------------------------------------------| 
|-----------------------------------------7t10...--| 
|-1--2--7t10..--1--2--7t10..-6t9...------------| 
|-1--2------------1--2-------------------------------| 
|-1--2------------1--2-------------------------------| 
|                                                   | 
|----------------------------------------------------| 
|----------------------------------------------------| 
|----------------------------------------------------| 
|-1--2------------1--2--------------------7t10...--| 
|-1--2--5t8...--1--2--5t8...-4t7...------------| 
|-1--2------------1--2-------------------------------| 

-|--------------------------------------------------| 
-|--------------------------------------------------| 
-|-------8t11...----------------------------------| 
-|-3--2------------2--1--7t10..-6t9...-5t8...-| 
-|-3--2------------2--1-----------------------------| 
-|-3--2------------2--1-----------------------------| 
 |                                                  | 
-|--------------------------------------------------| 
-|--------------------------------------------------| 
-|--------------------------------------------------| 
-|-3--2--8t11...-2--1-----------------------------| 
-|-3--2------------2--1--5t8...-4t7...-3t6...-| 
-|-3--2------------2--1-----------------------------| 

Riff 4c 
|----------------------------------------------------| 
|----------------------------------------------------| 
|----------------------------------------------------| 
|-1--2------------1--2--------------------10t13..--| 
|-1--2--8t11..--1--2--8t11..-7t10..------------| 
|-1--2------------1--2-------------------------------| 
|                                                   | 
|----------------------------------------------------| 
|----------------------------------------------------| 
|----------------------------------------------------| 
|-1--2------------1--2--------------------7t10...--| 
|-1--2--5t8...--1--2--5t8...-4t7...------------| 
|-1--2------------1--2-------------------------------| 

-|--------------------------------------------------| 
-|--------------------------------------------------| 
-|-------11t14..----------------------------------| 
-|-3--2------------2--1-----------------------------| 
-|-3--2------------2--1--8t11..-7t10..-6t9...-| 
-|-3--2------------2--1-----------------------------| 
 |                                                  | 
-|--------------------------------------------------| 
-|--------------------------------------------------| 
-|--------------------------------------------------| 
-|-3--2--8t11...-2--1-----------------------------| 
-|-3--2------------2--1--5t8...-4t7...-3t6...-| 
-|-3--2------------2--1-----------------------------| 

       Riff 5 
 -----|-----------------------|------------------------| 
 -----|-----------------------|------------------------| 
 -----|-----------------------|------------------------| 
 -----|-----------------------|--------------------^---| 
 -1-2-|-3-2-1-0-1--3-2-1-0-2--|-3-2-1-0-1--3-2-1-0-1~--| 
 -1-2-|-3-2-1-0-1--3-2-1-0-2--|-3-2-1-0-1--3-2-1-0-----| 
  . . | . . . . .  . . . . .  | . . . . .  . . . .    | 
 -----|--------------------^--|--------------------^---| 
 -----|---------^----------5~-|---------^----------5~--| 
 -----|---------4~------------|---------4~-------------| 
 -----|-----------------------|------------------------| 
 -1-2-|-3-2-1-0----3-2-1-0----|-3-2-1-0----3-2-1-0-----| 
 -1-2-|-3-2-1-0----3-2-1-0----|-3-2-1-0----3-2-1-0-----| 
  . .   . . . .    . . . .      . . . .    . . . . 

-|-----------------------|-----------------| 
-|-----------------------|-----------------| 
-|-----------------------|-----------------| 
-|---------^----------^--|-----------------| 
-|-3-2-1-0-1~-3-2-1-0-1~-|-3-2-1-0-1-------| 
-|-3-2-1-0----3-2-1-0----|-3-2-1-0-1-------| 
 | . . . .    . . . .    | . . . . .       | 
-|--------------------^--|-----------------| 
-|---------^----------5~-|---------^-------| 
-|---------4~------------|---------4~------| 
-|-----------------------|-----------------| 
-|-3-2-1-0----3-2-1-0----|-3-2-1-0---------| 
-|-3-2-1-0----3-2-1-0----|-3-2-1-0---------| 
   . . . .    . . . .      . . . . 

 
		  

See also:

tabs Van Halen - Jump tabs The Doors - Roadhouse Blues tabs John Mayer - Belief tabs The Doors - People Are Strange tabs Guns N' Roses - Sweet Child o' mine tabs Aerosmith - Dream On
e-chords

Other versions:

tabs Odious Mortem - Third Pawn
auto scroll beats size up size down change color hide chords drawings
tab show chords e-chords YouTube Clip e-chords hide all tabs e-chords go to top tab

share