Odious Mortem

Caverns Of Reason

Odious Mortem

tabs

by  TERCMORAES

save to print version add songbook text version e-mail correct tuner
chordsukulelecavacokeyboardtabbassdrumsharmonicaflute Guitar Pro
close

there isn't a video lesson for this song

chords

Caverns Of Reason

	  		Gtr I (C# G# C# F# A# D#) - 'David' 
Gtr II (C# G# C# F# A# D#) - 'Dan' 

  Q=105           Q=110 
 4/4 
  Gtrs I, II 
  E E E E E E E   S S S S S S S S S S S S S S S S S S S S S S S S S S 
|---------------|-----------------------------------------------------| 
|---------------|-----------------------------------------------------| 
|---------------|---------3-------------------------------------------| 
|---------------|-----2-----2-----3---------5-----------7-------8-----| 
|-3-2-3-4-3-1-2-|---1---1-----1S2---2-----4---6---6---6---8-6S7---7---| 
|-5-4-5-6-5-3-4-|-2-------------------3S5-------5---7---------------8-| 


  S S S S S S S S S S S S S S S S 
|---------------------------------| 
|---------------------------------| 
|---------------------------------| 
|---------------------5S3---------| 
|-7S6---6S5---5S4---4-----2---2S1-| 
|-----7-----6-----5---------3-----| 


  S S S S S S S S S S S S S S S S S S S S S S S S S S 
|------------------------------------------------------| 
|------------------------------------------------------| 
|---------3--------------------------------------------| 
|-----2-----2-----3---------5-----------7-------8------| 
|---1---1-----1S2---2-----4---6---6---6---8-6S7---7----| 
|-2-------------------3S5-------5---7---------------8--| 


  S S S S S S S S S S S S 
|-------------------------| 
|-------------------------| 
|-----6-------------------| 
|---8---8-6-------5-------| 
|-7---------7-6-----6-5---| 
|---------------7-------6-| 
| 
|-------------------------| 
|-------------------------| 
|-------------------------| 
|-------------------------| 
|-------------------------| 
|-------------------------| 


    Gtr I 
     S S  S S  S  S S  S  S  S  S  S S  S S  S S  S S  S S S 
||-----------------------------------------------------------| 
||o----------------------------------------------------------| 
||-------------8-------------------------------5---------4---| 
||--------7-------7-------8------------------7----7--------6-| 
||o----6----6-------6S=7-----7-----7S6----6---------6--------| 
||---7--------------------------8-------7--------------7-----| 
| 
|   Gtr II 
|    S S  S S  S  S S  S  S  S  S  S S  S S  S S  S S  S S S 
||-----------------------------------------------------------| 
||o----------------------------------------------------------| 
||------------11-------------------------------8---------7---| 
||-------10------10------11-----------------10---10--------(b9)| 
||o----(b9)---(b9)------9S10----10----10S(b9)---(b9)--------(b9)-------| 
||--10-------------------------11------10-------------10-----| 


          Gtrs I, II 
  S S     S S S S S S S S S S S S S S S S S S S S S S S S S S S S S S S S 
|------||-----------------------------------------------------------------| 
|-----o||-----------------------------------------------------------------| 
|------||---------3-----------------------------------------------6-------| 
|------||-----2-----2-----3---------5-----------7-------8-------8---8-6---| 
|-5---o||---1---1-----1S2---2-----4---6---6---6---8-6S7---7---7---------7-| 
|---6--||-2-------------------3S5-------5---7---------------8-------------| 
| 
| S S 
|------||-----------------------------------------------------------------| 
|-----o||-----------------------------------------------------------------| 
|------||-----------------------------------------------------------------| 
|------||-----------------------------------------------------------------| 
|-8---o||-----------------------------------------------------------------| 
|---(b9)-||-----------------------------------------------------------------| 


  S S S S S S   Q 
|-------------|----| 
|-------------|----| 
|-------------|----| 
|-----5-------|----| 
|-6-----6-5---|----| 
|---7-------6-|----| 
| 
|-------------|----| 
|-------------|----| 
|-------------|----| 
|-------------|----| 
|-------------|----| 
|-------------|----| 


  Gtr I 
   S S  S S  S  S S  S  S  S  S  S S  S S  S   S  S S  S S S 
|--------------------------------------------|-----------------| 
|--------------------------------------------|-----------------| 
|------------8-------------------------------|-5---------4-----| 
|-------7-------7-------8------------------7-|----7--------6---| 
|----6----6-------6S=7-----7-----7S6----6----|------6----------| 
|--7--------------------------8-------7------|---------7-------| 
| 
| Gtr II 
|  S S  S S  S  S S  S  S  S  S  S S  S S  S   S  S S  S S S 
|--------------------------------------------|-----------------| 
|--------------------------------------------|-----------------| 
|-----------11-------------------------------|-8---------7-----| 
|------10------10------11-----------------10-|---10--------(b9)--| 
|----(b9)---(b9)------9S10----10----10S(b9)---(b9)---|------(b9)---------| 
|-10-------------------------11------10------|--------10-------| 


          Gtrs I, II 
  S S     T T T T T T T T T T T T T T T T T T T S S S S T T T S S S S T 
|-----||-----------------------------------------------------------------| 
|-----||o----------------------------------------------------------------| 
|-----||-----------------------------------------------------------------| 
|-----||-----------------------------------------------------------------| 
|-5---||o---------------------------------------1-------------1----------| 
|---6-||--2-2-2-2-0-0-0-0-1-1-1-1-3-3-3-3-1-2-4---4-2-1-1-2-4---4-2-1-2--| 
| 
| S S 
|-----||-----------------------------------------------------------------| 
|-----||o----------------------------------------------------------------| 
|-----||-----------------------------------------------------------------| 
|-----||-----------------------------------------------------------------| 
|-8---||o----------------------------------------------------------------| 
|---(b9)||-----------------------------------------------------------------| 


                                                  Gtr I 
  T T T T T T T T T T T T T T T T T T T S S S S   T T T S S S S T T T S S 
|-----------------------------------------------|--------------------------| 
|-----------------------------------------------|--------------------------| 
|-----------------------------------------------|--------------------------| 
|-----------------------------------------------|-------1-------------2----| 
|---------------------------------------1-------|-1-2-4---4-2-1-2-3-5---5--| 
|-2-2-2-0-0-0-0-1-1-1-1-3-3-3-3-0-0-0-0---4-2-1-|--------------------------| 
| 
|                                                 Gtr II 
|                                                 T T T S S S S T T T S S 
|-----------------------------------------------|--------------------------| 
|-----------------------------------------------|--------------------------| 
|-----------------------------------------------|--------------------------| 
|-----------------------------------------------|-------4-------------5----| 
|-----------------------------------------------|-4-5-7---7-5-4-5-6-8---8--| 
|-----------------------------------------------|--------------------------| 


  Gtrs I, II 
  T T T T T T T T T T T T T T T T T T T S S S S T T T S S S S   T T T 
|-------------------------------------------------------------|--------| 
|-------------------------------------------------------------|--------| 
|-------------------------------------------------------------|--------| 
|-------------------------------------------------------------|--------| 
|---------------------------------------1-------------1-------|--------| 
|-2-2-2-2-0-0-0-0-1-1-1-1-3-3-3-3-1-2-4---4-2-1-1-2-4---4-2-1-|-2-2-2--| 


  T T T T T T T T T T T T T T T T T S S S S   T T T S S S S T T T S S 
|-------------------------------------------|--------------------------||---| 
|-------------------------------------------|-------------------------o||---| 
|-------------------------------------------|--------------------------||---| 
|-------------------------------------------|-------1-------------2----||---| 
|-----------------------------------1-------|-1-2-4---4-2-1-2-3-5---5-o||---| 
|-2-0-0-0-0-1-1-1-1-3-3-3-3-0-0-0-0---4-2-1-|--------------------------||---| 
| 
|                                             T T T S S S S T T T S S 
|-------------------------------------------|--------------------------||---| 
|-------------------------------------------|-------------------------o||---| 
|-------------------------------------------|--------------------------||---| 
|-------------------------------------------|-------4-------------5----||---| 
|-------------------------------------------|-4-5-7---7-5-4-5-6-8---8-o||---| 
|-------------------------------------------|--------------------------||---| 


  Gtrs I, II 
  E E E E E     T T T T T T T T T T T T T T T T T T T T T T T T T T T T T 
|-----------||------------------------------------------------------------| 
|-----------||o-----------------------------------------------------------| 
|-----------||------------------------------------------------------------| 
|-----------||------------------------------------------------------------| 
|-3-2-4-1-2-||o-----------------------------------------------------------| 
|-5-4-6-3-4-||--2-2-2-2-0-0-0-0-1-1-1-1-3-3-3-3-6-6-6-6-7-7-7-7-6-6-6-6-5-| 


  T T T T T T T T T T T 
|-----------------------| 
|-----------------------| 
|-----------------------| 
|-----------------------| 
|-----------------------| 
|-5-5-5-5-5-5-5-4-4-4-4-| 


  T T T T T T T T T T T T T T T T T T T T T T T T T T T T T 
|-----------------------------------------------------------| 
|-----------------------------------------------------------| 
|-----------------------------------------------------------| 
|-----------------------------------------------------------| 
|-----------------------------------------------------------| 
|-2-2-2-2-0-0-0-0-1-1-1-1-3-3-3-3-6-6-6-6-7-7-7-7-6-6-6-6-5-| 


  T T T T T T T T T T T S S S S S S S S S S S S         T T T T T T T T T T T 
|------------------------------------------------||-||-------------------------| 
|-----------------------------------------------o||-||o------------------------| 
|------------------------------------------------||-||-------------------------| 
|-----------------------6---------5S3---------1--||-||-------------------------| 
|-------------------------5-----4-----2-----1---o||-||o------------------------| 
|-5-5-5-5-5-5-5-4-4-4-4-----6-5---------3-2------||-||--2-2-2-2-1-1-1-1-4-4-4--| 


  T T T T T T T T T T T T T T T T T T T T T   T T T T T T T T T T T T T 
|-------------------------------------------|---------------------------| 
|-------------------------------------------|---------------------------| 
|-------------------------------------------|---------------------------| 
|-------------------------------------------|---------------------------| 
|-------------------------------------------|---------------------------| 
|-4-3-3-3-3-3-3-3-3-3-3-3-3-2-2-2-2-3-3-3-3-|-2-2-2-2-1-1-1-1-4-4-4-4-3-| 


                  Gtr I                                               Gtrs I, II 
  T T T T T T T   T T T T T T T T T T T T   T T T T T T T T T T T T   E E 
|---------------|-------------------------|-------------------------|------| 
|---------------|-------------------------|-------------------------|------| 
|---------------|-------------------------|-------------------------|------| 
|---------------|-------------------------|-------------------------|------| 
|---------------|-------------------------|-6-6-6-6-5-5-5-5-8-8-8-8-|-3-2--| 
|-3-3-3-3-3-3-3-|-6-6-6-6-5-5-5-5-8-8-8-8-|-------------------------|-5-4--| 
| 
|                 Gtr II 
|                 T T T T T T T T T T T T   T T T T T T T T T T T T 
|---------------|-------------------------|-------------------------|------| 
|---------------|-------------------------|-------------------------|------| 
|---------------|-------------------------|-------------------------|------| 
|---------------|-------------------------|-------------------------|------| 
|---------------|-------------------------|-------------------------|------| 
|---------------|-3-3-3-3-2-2-2-2-5-5-5-5-|-6-6-6-6-5-5-5-5-8-8-8-8-|------| 


   E    E E E E E 
|------------------|| 
|-----------------o|| 
|-4b5------------|| 
|------------------|| 
|-------3-2-3-0-1-o|| 
|-------5-4-5-2-3--|| 


  Q=120 
  S S S S S S S S S S S S T T T T T T S S S S S S S S S S 
|-----------------------------------------------------------| 
|-----------------------------------------------------------| 
|-----------------------------------------------------------| 
|---------2-5---------2-5-3h6p3-2h5p2---------2-5-----------| 
|-----2-5---------2-5---------------------2-5---------3-6---| 
|-2-5---------2-5---------------------2-5---------3-6-------| 


  S S S S S S T T T T T T T T T T T T   Q 
|-------------------------------------|---| 
|-------------0h3h6-------------------|---| 
|-------------------0h3h6-------------|---| 
|---------2-5-------------0h3h6-------|---| 
|-----2-5-----------------------0h3h6-|---| 
|-2-5---------------------------------|---| 


    E   E  E   E   E    S S S S S S E S S S S 
||--------------------------------------------| 
||o-------------------------------------------| 
||-----5------------------------------------| 
||----------------3b4-----------------------| 
||o-3/-----6\-3-----------2-5-3-2-4-----3-6-| 
||--5/-----8\-----------3-6-----5-4-6-4-7-----| 


   E   E  E   E  E   E   E    S S 
|---------------------------------| 
|---------------------------------| 
|-3--------5------------------| 
|-----2---------------3b4-----| 
|---------3/-----6\-3-----------| 
|---------5/-----8\-----------3-6-| 


                                                             T 
  S S S S E S S S S  E   E   E   E   E   E   E   E   3x      T T T T 
|----------------------------------------------------||-||-------------| 
|---------------------------------------------------o||-||o------------| 
|-------------------3-----3----------------------||-||-------------| 
|-----------------------2-----2-3--------------||-||-------------| 
|-2-5-3-2-4-----3-6---------------------2-3-----o||-||o-10p3h5p3---| 
|-----5-4-6-4-7---------------------------------2--||-||-------------| 


  T        T       T        T        T        T        T        T        T 
  T T T T  T T T T T T T T  T T T T  T T T T  T T T T  T T T T  T T T T  T T T T  3x 
|---------------------------------------------------------------------------------|| 
|--------------------------------------------------------------------------------o|| 
|---------------------------------------------------------------------------------|| 
|---------------------------------------------------------------------------------|| 
|-9p2h5p2-10p3h5p3-9p2h5p2-10p3h5p3-11p4h7p4-10p3h5p3-11p4h7p4-12p5h8p5-11p4h7p4-o|| 
|---------------------------------------------------------------------------------|| 


|-| 
|-| 
|-| 
|-| 
|-| 
|-| 


   T       T        T       T        T       T        T       T 
   T T T T T T T T  T T T T T T T T  T T T T T T T T  T T T T T T T T 
|------------------------------------------------------------------------| 
|------------------------------------------------------------------------| 
|------------------------------------------------------------------------| 
|------------------------------------------------------------------------| 
|-10p3h5p3-9p2h5p2------------------10p3h5p3-9p2h5p2-10p3h5p3-9p2h5p2----| 
|------------------10p3h5p3-9p2h5p2--------------------------------------| 


  T       T        T       T       T       T       T       T 
  T T T T T T T T  T T T T T T T T T T T T T T T T T T T T T T T T 
|------------------------------------------------------------------|---| 
|------------------------------------------------------------------|---| 
|------------------------------------------------------------------|---| 
|------------------------------------------------------------------|---| 
|-8p1h4p1-9p2h5p2------------------9p2h5p2-8p1h4p1-----------------|---| 
|-----------------10p3h5p3-9p2h5p2-----------------9p2h5p2-8p1h4p1-|---| 


    Q=115 
     S  S  S S S S S S E   E  E   E  S S S S S S S S T T T T T T T T T T T T T T T 
||---------------------------------------------------------------------------------| 
||o--------------------------------------------------------------------------------| 
||------------------------5------------------------------------------------------| 
||---------------------------------------------------------------------------------| 
||o-11---------8-------3/-----6\-3-----2-5-----3-6-------------------------------| 
||-----12-11-0---(b9)8-0-5/-----8\-----3-6-----4-7-----5-5-4-4-5-5-6-6-5-5-4-4-6-6-5-| 


  T T T T T T T T T E E    S  S  S S S S S S E   E  E   E   E 
|-----------------------|----------------------------------------| 
|-----------------------|----------------------------------------| 
|-----------------------|-----------------------5--------------| 
|-----------------------|----------------------------------3b4-| 
|-------------------4-3-|-11---------8-------3/-----6\-3-------| 
|-5-6-6-7-7-6-6-5-5-6-5-|----12-11-0---(b9)8-0-5/-----8\-----------| 


  S S S S S S S S T T T T T T T T T T T T T T T 
|------------------------------------------------| 
|------------------------------------------------| 
|------------------------------------------------| 
|------------------------------------------------| 
|-----2-5-----3-6--------------------------------| 
|-3-6-----4-7-----5-5-4-4-5-5-6-6-5-5-4-4-6-6-5--| 


  T T T T T T T T T E E E     E     E E E E E E E E E E E E E E E E E E  4x 
|--------------------------||---||---------------------------------------||--| 
|-------------------------o||---||o-------------------------------------o||--| 
|--------------------------||---||---------------------------------------||--| 
|--------------------------||---||---------------------------------------||--| 
|-------------------4-3-2-o||-1-||o-3-2-3-4-3-1-2-3-2-4-1-2-3-2-3-4-1-2-o||--| 
|-5-6-6-7-7-6-6-5-5-6-5-4--||-3-||--5-4-5-6-5-3-4-5-4-6-3-4-5-4-5-6-3-4--||--| 


  E E E E E E   S S S S S S S S S S S S E E S S S S E E S S S S S S S S 
|-------------|---------------------------------------------------------| 
|-------------|---------------------------------------------------------| 
|-------------|---------------------------------------------------------| 
|-------------|-6-----------5---------------6---------------------------| 
|-3-2-3-4-1-2-|---7-6-5-------6-5-4-----4-3---7-6-5-4-3-----2-5-----3-5-| 
|-5-4-5-6-3-4-|---------6-5---------5-4-6-5---------6-5-3-6-----4-7-----| 


  E E E E E E E E E E E E   S S S S E S S S S S S E E S S S S S S S S 
|-------------------------|-------------------------------------------|-| 
|-------------------------|-------------------------------------------|-| 
|-------------------------|-------------------------------------------|-| 
|-------------------------|-6---------6-------------------------------|-| 
|-3-2-3-4-3-1-2-3-2-4-1-2-|---7-6-5-4---7-6-5-----4-3-----2-5-----3-5-|-| 
|-5-4-5-6-5-3-4-5-4-6-3-4-|---------6---------6-5-6-5-3-6-----4-7-----|-| 


  E E E E E E E E E E E E   S S S S E S S S S S S E E S S S S S S S S S S S S 
|-------------------------|----------------------------------------------------| 
|-------------------------|----------------------------------------------------| 
|-------------------------|----------------------------------------------------| 
|-------------------------|-6---------6---------------6-----------5------------| 
|-3-2-3-4-3-1-2-3-2-4-1-2-|---7-6-5-4---7-6-5-----4-3---7-6-5-------6-5-4------| 
|-5-4-5-6-5-3-4-5-4-6-3-4-|---------6---------6-5-6-5---------6-5---------5-4--| 


  S S S S S S S S S S S S E   E  E   E    E E E E E E 
|---------------------------------------|-------------|----| 
|---------------------------------------|-------------|----| 
|----------------------------5--------|-------------|----| 
|-4-------------------------------------|-------------|----| 
|---5-4-3-----2-5-----3-5-3/-----6\-3-|-3-2-3-4-1-2-|----| 
|---------3-6-----4-7-----5/-----8\-----|-5-4-5-6-3-4-|----| 
		  

Full key step upFull key step up
Half key step upHalf key step up
Half key step downHalf key step down
Full key step downFull key step down
hide glossary

See also:

tabs Van Halen - Jump tabs The Doors - Roadhouse Blues tabs John Mayer - Belief tabs The Doors - People Are Strange tabs Guns N' Roses - Sweet Child o' mine tabs Aerosmith - Dream On
e-chords

Other versions:

tabs Odious Mortem - Caverns Of Reason
auto scroll beats size up size down change color hide chords drawings
tab show chords e-chords YouTube Clip e-chords hide all tabs e-chords go to top tab

share