Odious Mortem

Carpal Tunnel

Odious Mortem

tabs

by  SABRJOAO

save to print version add songbook text version e-mail correct tuner
chordsukulelecavacokeyboardtabbassdrumsharmonicaflute Guitar Pro
close

there isn't a video lesson for this song

chords

Carpal Tunnel

	  		TABULATURE LEGEND:  
                   " - tremolo             h - hammer on             
                   ~ - vibrato             \ - slide down  
                   p - pull off            / - slide down  
                  tr - tremolo picking     ^ - pinch harmonics       
                   = - sustained note      b - bend string           
                p.m. - palm muting         t - tapping  

TUNING: C# G# C# F# A# D#  

Intro  
|---------------------------------|-----------------------|-  
|---------------------------------|-----------------------|-  
|---------------------------------|-----------------------|-  
|-----3---6-----------3---6---(b9)--|-----3---6---(b9)--12----|-  
|-6-3---5---5-6-3-6-5---5---5---8-|-6-3---5---5---8----11-|-  
|-6-3---------6-3-6---------------|-6-3-------------------|-  
| . . . . . . . . . . . . . . . . | . . . . . . . . .  .  |  
|---------------------------------|-----------------------|-  
|---------------------------------|-----------------------|-  
|---------------------------------|-----------------------|-  
|---------------------------------|-----------------------|-  
|-6-3---------6-3-6---------------|-6-3-3-----------------|-  
|-6-3---------6-3-6---------------|-6-3-3-----------------|-  
  . .         . . .                 . . .  

-|---------------------------------|-------------------------|  
-|-----------------------------6---|---------------6-----(b9)--|  
-|---------------------------------|-------------------7-----|  
-|---------3---6-------3---6-----3-|---------6---3---6-----6-|  
-|-6-3-3-5---5---5-6-3---5---5-----|-6-3-3-5---5-------------|  
-|-6-3-3-----------6-3-------------|-6-3---------------------|  
 | . . . . . . . . . . . . . . . . | . . . . . . . . . . . . |  
-|---------------------------------|-------------------------|  
-|-----------------------------6---|---------------6-----(b9)--|  
-|---------------------------------|-------------------7-----|  
-|---------3---6-------3---6-----3-|---------6---3---6-----6-|  
-|-6-3-3-5---5---5-6-3---5---5-----|-6-3-3-5---5-------------|  
-|-6-3-3-----------6-3-------------|-6-3---------------------|  
   . . . . . . . . . . . . . . . .   . . . . . . . . . . . .  

Riff 1 (x2)  
||----------------------------------|--------------------------|-  
||o---------------------------------|--------------------------|-  
||----------------------------------|-7---------------7---10---|-  
||----------6---(b9)----------6---(b9)--|---6-----6---(b9)----6----(b9)|-  
||o-6-3-3-5---5---8---8---5---5---8-|-----3-5---5---8----------|-  
||--6-3-------------(b9)--(b9)----------|-----3--------------------|-  
|   . . . . . . . . . . . . . . . . | . . . . . . . . . . .  . |  
||----------------------------------|--------------------------|-  
||o---------------------------------|--------------------------|-  
||----------------------------------|-7---------------7---10---|-  
||----------6---(b9)----------6---(b9)--|---6-----6---(b9)----6----(b9)|-  
||o-6-3-3-5---5---8---8---5---5---8-|-----3-5---5---8----------|-  
||--6-3-------------(b9)--(b9)----------|-----3--------------------|-  
    . . . . . . . . . . . . . . . .   . . . . . . . . . . .  .  

ending 1  
-|---------------------------------|----------------------------------||  
-|-----------------------------(b9)--|-----------------------6-----(b9)--o||  
-|-------------------------------7-|---------------------7-----7------||  
-|---------6---(b9)------6---(b9)------|-6---------6---(b9)--6-----6-----6--||  
-|---5---5---5---8---5---5---8-----|-----5-8-5---5---8---------------o||  
-|-6---3-----------(b9)--------------|---6------------------------------||  
 | . . . . . . . . . . . . . . . . | . . . . . . . . . . . . . . . .   |  
-|---------------------------------|----------------------------------||  
-|-----------------------------(b9)--|-----------------------6-----(b9)--o||  
-|-------------------------------7-|---------------------7-----7------||  
-|---------6---(b9)------6---(b9)------|-6---------6---(b9)--6-----6-----6--||  
-|---5---5---5---8---5---5---8-----|-----5-8-5---5---8---------------o||  
-|-6---3-----------(b9)--------------|---6------------------------------||  
   . . . . . . . . . . . . . . . .   . . . . . . . . . . . . . . . .  

ending 2  
|---------------------------------|-  
|-----------------------------(b9)--|-  
|-------------------------------7-|-  
|---------6---(b9)------6---(b9)------|-  
|---5---5---5---8---5---5---8-----|-  
|-6---3-----------(b9)--------------|-  
| . . . . . . . . . . . . . . . . |  
|---------------------------------|-  
|-----------------------------(b9)--|-  
|-------------------------------7-|-  
|---------6---(b9)------6---(b9)------|-  
|---5---5---5---8---5---5---8-----|-  
|-6---3-----------(b9)--------------|-  
  . . . . . . . . . . . . . . . .  

-|-----------------------------7-6------------|  
-|-----------------------(b9)--5-5-------(b9)8\---|  
-|---------------------7---4---------7--------|  
-|-6---------6---(b9)--6-------------6----------|  
-|-----5-8-5---5---8--------------------------|  
-|---6----------------------------------------|  
 | . . . . . . . . . . . . . . . . . . .      |  
-|-----------------------------7-6------------|  
-|-----------------------(b9)--5-5-------(b9)8\---|  
-|---------------------7---4---------7--------|  
-|-6---------6---(b9)--6-------------6----------|  
-|-----5-8-5---5---8--------------------------|  
-|---6----------------------------------------|  
   . . . . . . . . . . . . . . . . . . .  

Riff 2a  
|----------------------------------------------------------------------|-  
|----------------------------------------------------------------------|-  
|----------------------------------------------------------------------|-  
|---------7t13..-6t12---------7t13..------------6t12-8t14----|-  
|-0-----------------------0--------------------------------------------|-  
|----------------------------------------------------------------------|-  
|                                                                      |  
|----------------------------------------------------------------------|-  
|----------------------------------------------------------------------|-  
|----------------------------------------------------------------------|-  
|---------7t13..-6t12---------7t13..-6t12--7t13----8t14..--|-  
|-7t13------------------7t13---------------------------------------|-  
|----------------------------------------------------------------------|-  

-|-------------------------12t17.........-------|  
-|------------------------------------------------|  
-|------------------------------------------------|  
-|---------7t13..-6t12------------------------|  
-|-0----------------------------------------------|  
-|------------------------------------------------|  
 |                                                |  
-|------------------------------------------------|  
-|------------------------------------------------|  
-|------------------------------------------------|  
-|---------7t13..-6t12..--7t13...-8t14..--|  
-|-7t13-----------------------------------------|  
-|------------------------------------------------|  

Riff 2b  
|-12t17..------------------------------------------------------------|-  
|-----------10t16...-------------------------------------------------|-  
|----------------------9t15..----------------------------------------|-  
|--------------------------------9t15..-6t12--9\-------------------|-  
|----------------------------------------------------------------------|-  
|----------------------------------------------------------------------|-  
|                                                                      |  
|----------------------------------------------------------------------|-  
|----------------------------------------------------------------------|-  
|----------------------------------------------------------------------|-  
|---------7t13..-6t12---------7t13..-6t12--7t13----8t14..--|-  
|-7t13------------------7t13---------------------------------------|-  
|----------------------------------------------------------------------|-  

-|------------------------------------------------|  
-|------------------------------------------------|  
-|-----------------------------10t16..-9t15---|  
-|---------9t15..-10t16...--------------------|  
-|------------------------------------------------|  
-|------------------------------------------------|  
 |                                                |  
-|------------------------------------------------|  
-|------------------------------------------------|  
-|------------------------------------------------|  
-|---------7t13..-6t12..--7t13...-8t14..--|  
-|-7t13-----------------------------------------|  
-|------------------------------------------------|  

Riff 3 (x2)  
||-----------------------------------|-ending 1---------------------^----||  
||o----------------------------------|--------------------------------7~--o||  
||-----------------------------------|------------------8-----------8------||  
||----------------------777788887777-|--------------------7-------7--------||  
||o---------777755556666-------------|---------77775555-----6-7-5---------o||  
||--777-8888-------------------------|-77778888----------------------------||  
|                                    |                                      |  
||-----------------------------------|-ending 1---------------------^----||  
||o----------------------------------|--------------------------------7~--o||  
||-----------------------------------|------------------8-----------8------||  
||----------------------777788887777-|--------------------7-------7--------||  
||o---------777755556666-------------|---------77775555-----6-7-5---------o||  
||--777-8888-------------------------|-77778888----------------------------||  

-ending 2-------|  
------------------|  
------------------|  
------------------|  
---------77775555-|  
-77778888---------|  
                  |  
-ending 2-------|  
------------------|  
------------------|  
------------------|  
---------77775555-|  
-77778888---------|  

Riff 4 (x2)  
||---------------------------------------------------||  
||o-------------------------------------------------o||  
||--8------------------------------------------------||  
||----7-------7-6---------6-5-4-------5-4-3----------||  
||o-----6-5-6-----7-6-----------6-5-4-------4-3-2-3-o||  
||--------------------7-6----------------------------||  
|   . . . . . . . . . . . . . . . . . . . . . . . .   |  
||---------------------------------------------------||  
||o-------------------------------------------------o||  
||--8------------------------------------------------||  
||----7-------7-6---------6-5-4-------5-4-3----------||  
||o-----6-5-6-----7-6-----------6-5-4-------4-3-2-3-o||  
||--------------------7-6----------------------------||  
    . . . . . . . . . . . . . . . . . . . . . . . .  

Riff 5  
|---------------------------------|-----------------------|-  
|---------------------------------|-----------------8-----|-  
|-8-----------8-----------8-------|-------------------8---|-  
|---7-----------7-----------7-----|-----7-10---(b9)10-----8-|-  
|-----6-----------6-----------6---|---7-------------------|-  
|-------7-6-7-------7-6-7-------6-|-7--------7------------|-  
| . . . . . . . . . . . . . . . . | . . . .  . . .  . . . |  
|---------------------------------|-----------------------|-  
|---------------------------------|-----------------8-----|-  
|-8-----------8-----------8-------|-------------------8---|-  
|---7-----------7-----------7-----|-----7-10---(b9)10-----8-|-  
|-----6-----------6-----------6---|---7-------------------|-  
|-------7-6-7-------7-6-7-------6-|-7--------7------------|-  
  . . . . . . . . . . . . . . . .   . . . .  . . .  . . .  

-|---------------------------------|  
-|---------------------------------|  
-|-8-----------8-----------8-------|  
-|---7-----------7-----------7---8-|  
-|-----6-----------6-----------6---|  
-|-------7-6-7-------7-6-7---------|  
 | . . . . . . . . . . . . . . . . |  
-|---------------------------------|  
-|---------------------------------|  
-|-8-----------8-----------8-------|  
-|---7-----------7-----------7---8-|  
-|-----6-----------6-----------6---|  
-|-------7-6-7-------7-6-7---------|  
   . . . . . . . . . . . . . . . .  

                                 Riff 6 (x3)  
-------------------------------||----------------------------------------|-  
-------------------------------||o---------------------------------------|-  
-----6-----------3-------------||----------------------------------------|-  
-------5---5-------2---2-------||----------------------------------------|-  
-7-------4---4-3-----1---1-----||o---------5h8p5---------5h8p5-----5h8p5-|-  
---7-----------------------2-0-||--3-6-4-7-------3-6-4-7-------3-6-------|-  
 . . . . . . . . . . . . . . . |   . . . .       . . . .       . .       |  
-------------------------------||----------------------------------------|-  
-------------------------------||o---------------------------------------|-  
-----6-----------3-------------||----------------------------------------|-  
-------5---5-------2---2-------||----------------------------------------|-  
-7-------4---4-3-----1---1-----||o---------5h8p5---------5h8p5-----5h8p5-|-  
---7-----------------------2-0-||--3-6-4-7-------3-6-4-7-------3-6-------|-  
 . . . . . . . . . . . . . . .     . . . .       . . . .       . .  

------------------------------||  
-----------------------------o||  
------------------------------||  
------------------------------||  
---------5h8p5---------6-5-4-o||  
-3-6-4-7-------3-6-4-7-6-5-4--||  
 . . . .       . . . . . . .   |  
------------------------------||  
-----------------------------o||  
------------------------------||  
------------------------------||  
---------5h8p5---------6-5-4-o||  
-3-6-4-7-------3-6-4-7-6-5-4--||  
 . . . .       . . . . . . .  

Riff 7 (x2)  
||------------------|---------------------------|-------------------|-  
||o-----------------|---------------------------|-------------------|-  
||------------------|-----------------2-5-------|-------------------|-  
||------------------|-------------4-7---------4-|-------------------|-  
||o-4-3-2-1-2-1-0-1-|-2-1-2-1-3-6---------3-6---|-4--3--2-1-2-1-0-1-|-  
||--4-3-2-1-2-1-0-1-|-2-1-2-1-------------------|-4--3--2-1-2-1-0-1-|-  
|   . . . . . . . . | . . . . . . . . . . . . . |       . . . . . . |  
||------------------|---------------------------|-------------------|-  
||o-----------------|---------------------------|-------------------|-  
||------------------|-----------------2-5-------|-------------------|-  
||------------------|-------------4-7---------4-|-------------------|-  
||o-4-3-2-1-2-1-0-1-|-2-1-2-1-3-6---------3-6---|-4--3--2-1-2-1-0-1-|-  
||--4-3-2-1-2-1-0-1-|-2-1-2-1-------------------|-4--3--2-1-2-1-0-1-|-  
    . . . . . . . .   . . . . . . . . . . . . .         . . . . . .  

-|----------------------------------||-------------------------  
-|---------------------------------o||-------------------------  
-|---------2-5----------------------||-------------------------  
-|-----4-7---------2-5-----3-6------||-------------------------  
-|-3-6---------1-4-----1-4-----4-3-o||-4-3-2-1-2-1-0-1-2-1-2-1-  
-|----------------------------------||-4-3-2-1-2-1-0-1-2-1-2-1-  
 | . . . . . . . . . . . . . . . .   | . . . . . . . . . . . .  
-|----------------------------------||-------------------------  
-|---------------------------------o||-------------------------  
-|---------2-5----------------------||-------------------------  
-|-----4-7---------2-5-----3-6------||-------------------------  
-|-3-6---------1-4-----1-4-----4-3-o||-4-3-2-1-2-1-0-1-2-1-2-1-  
-|----------------------------------||-4-3-2-1-2-1-0-1-2-1-2-1-  
   . . . . . . . . . . . . . . . .     . . . . . . . . . . . .  

Riff 8 (x3)  
||----------------------------------|------------------------------||  
||o---------------------------------|------------------------------||  
||----------2-5---------------------|------------------------------||  
||------4-7---------2-5-----3-6-----|---------5-8------------------||  
||o-3-6---------1-4-----1-4-----4-3-|-----4-7---------4-7-----3-6-o||  
||----------------------------------|-5-8---------5-8-----5-8------||  
|   . . . . . . . . . . . . . . . . | . . . . . . . . . . . . . .   |  
||----------------------------------|------------------------------||  
||o---------------------------------|------------------------------||  
||----------2-5---------------------|------------------------------||  
||------4-7---------2-5-----3-6-----|---------5-8------------------||  
||o-3-6---------1-4-----1-4-----4-3-|-----4-7---------4-7-----3-6-o||  
||----------------------------------|-5-8---------5-8-----5-8------||  
    . . . . . . . . . . . . . . . .   . . . . . . . . . . . . . .  

Ending  
|---------------------------------|---------------------------------|  
|---------------------------------|---------------------------------|  
|---------2-5---------------------|---------------------------------|  
|-----4-7---------2-5-----3-6-----|---------5-8---------------------|  
|-3-6---------1-4-----1-4-----4-3-|-----4-7---------4-7-----3-6---2-|  
|---------------------------------|-5-8---------5-8-----5-8-----5-0-|  
| . . . . . . . . . . . . . . . . | . . . . . . . . . . . . . . . . |  
|---------------------------------|---------------------------------|  
|---------------------------------|---------------------------------|  
|---------2-5---------------------|---------------------------------|  
|-----4-7---------2-5-----3-6-----|---------5-8---------------------|  
|-3-6---------1-4-----1-4-----4-3-|-----4-7---------4-7-----3-6---2-|  
|---------------------------------|-5-8---------5-8-----5-8-----5-0-| 
		  

See also:

tabs Creed - One Last Breath (ver. 2) tabs John Mayer - Neon tabs The Offspring - Come Out and Play tabs The Doors - Riders On The Storm tabs Guns N' Roses - Knockin' On Heaven's Door tabs Jack Johnson - Breakdown
e-chords

Other versions:

tabs Odious Mortem - Carpal Tunnel tabs Fall Out Boy - Carpal Tunnel Of Love
auto scroll beats size up size down change color hide chords drawings
tab show chords e-chords YouTube Clip e-chords hide all tabs e-chords go to top tab

share