Obus

Juego Sucio

Obus

tabs

by  GUSTSILVA

save to print version add songbook text version e-mail correct tuner
chordsukulelecavacokeyboardtabbassdrumsharmonicaflute Guitar Pro
close

there isn't a video lesson for this song

chords

Juego Sucio

	  		Intro 

|--------------------------------------------------------| 
|--------------------------------------------------------| 
|--------------------------------------------------------| 
|-----------2--------------2---------2-------------------|x2 
|--------------------------------------------------------| 
|---0-0-2-3---3-2-0--0-2-3---0-0-2-3----3-2-0--0-2-3-2---| 

Parte 1 

|-----------------------------------------| 
|-----------------------------------------| 
|---9-------------------------9--7--9-----| x2 
|---9--con palm muting--------9--7--9-----| 
|---7-------------------------------------| 
|---0-------------------------------------| 

Tú, que todo lo quieres saber 
No sabes lo más importante 
Tú, criticas por el interés 
Perro faldero ignorante 

Parte 2 

|----------------------------------| 
|----------------------------------| 
|---5--------3---------------------| 
|---5----5---3---3---3-2-3-2-3-3s5-| 
|---3----5---1---3-----------------| 
|--------3-------1-----------------| 
Si llevaras mi rollo en la sangre 
Si supieras lo que hay que luchar 


|----------------------------------| 
|----------------------------------| 
|---5--------3---------------------| 
|---5----5---3---------------------| 
|---3----5---1---------------------| 
|--------3-------5-3-5-0-2-3-5-3-5-| 
Si pensaras un poco, ignorante 
Dejarías de largar 

Esto seria todo, luego se repite con el resto de la letra 


parte 1 

Tú, quítate el disfraz se te ve 
Te digo, no engañas a nadie 
Tú, no mientas, no finjas ya más 
Lo tuyo está en otra parte 

parte 2 

Si llevaras mi rollo en la sangre 
Si supieras lo que hay que luchar 
Si pensaras un poco, ignorante 
Dejarías de largar 

Parte 1 

Tú, te vendes, te dejas llevar 
Cortaron tus alas a tiempo 
Y por nunca saber opinar 
Te mueves según sopla el viento 

Parte 2 

Si llevaras mi rollo en la sangre 
Si supieras lo que hay que luchar 
Si pensaras un poco, ignorante 
Pasarías de tanto largar 
Si llevaras mi rollo en la sangre 
Si supieras lo que hay que luchar 
Si pensaras un poco, ignorante 
Dejarías de ladrar 
		  

auto scroll beats size up size down change color hide chords drawings
tab show chords e-chords YouTube Clip e-chords hide all tabs e-chords go to top tab

share