Oasis

home > Oasis

Stand by me (solo) Tab

Oasis

Difficulty: ExpertExpert

by WhatsBaraNofu

tuner correct add songbook print version text version save to e-mail
chordsukulelecavacokeyboardtabbassdrumsharmonicsflute Guitar Pro
chords

Stand by me (solo)

	  e|-------------------------------------------- 
b|-----8-10-10b(12)-12-12-10-12-8-8-8-7------- 
g|-7s9-----------------------------------7-9-- 
d|-------------------------------------------- 
a|-------------------------------------------- 
E|-------------------------------------------- 
 
e|---------------------------------------------- 
b|-8---8------8-10-10s12b(14)-12-12-10-12-10-8-- 
g|---9----7-9----------------------------------- 
d|---------------------------------------------- 
a|---------------------------------------------- 
E|---------------------------------------------- 

	  

there isn't a video lesson for this song

request
Search
auto scroll beats size up size down change color hide chords drawings
tab show chords e-chords YouTube Clip e-chords hide all tabs e-chords go to top tab