O Teatro Mágico

Consagração Da Raiz

O Teatro Mágico

tabs

by  MARCNAGEL

save to print version add songbook text version e-mail correct tuner
chordsukulelecavacokeyboardtabbassdrumsharmonicaflute Guitar Pro
close

there isn't a video lesson for this song

chords

Consagração Da Raiz

	  		Intro 

E|-------------------------------------------------------| 
B|-7--7--7--7--7--7--7--7--7--7--7--7--------------------| 
G|-6--6--6--6--6--6--6--6--6--6--6--6--------------------| 
D|-------------------------------------------------------| 
A|-------------------------------------------------------| 
E|-------------------------------------------------------| 

Dedilhado 

E|-------------------------------------------------------| 
B|-------------------------------------------------------| 
G|-------------------------------------------------------| 
D|-------------------------------------------------------| 
A|-------6----------4----------2-------------------------| 
E|-4--4-------2--2-------0--0----------------------------| 

E|-------------------------------------------------------| 
B|-------------------------------------------------------| 
G|-------------------------------------------------------| 
D|-----------------------2--2----------------------------| 
A|-------6----------4----------2-------------------------| 
E|-4--4-------2--2---------------------------------------| 

E|-------------------------------------------------------| 
B|-------------------------------------------------------| 
G|-------------------------------------------------------| 
D|-6--6-------4--4-------------4-------------------------| 
A|-------6----------4----2--2----------------------------| 
E|-------------------------------------------------------| 

E|-------------------------------------------------------| 
B|-------------------------------------------------------| 
G|-------------------------------------------------------| 
D|-----------------------2--2----------------------------| 
A|-------6----------4----------2-------------------------| 
E|-4--4-------2--2---------------------------------------| 

E|-------------------------------------------------------| 
B|-------------------------------------------------------| 
G|-------------------------------------------------------| 
D|-------------------------------------------------------| 
A|-------6----------4----------2-------------------------| 
E|-4--4-------2--2-------0--0----------------------------| 

E|-------------------------------------------------------| 
B|-------------------------------------------------------| 
G|-------------------------------------------------------| 
D|-----------------------2--2----------------------------| 
A|-------6----------4----------2-------------------------| 
E|-4--4-------2--2---------------------------------------| 

E|-------------------------------------------------------| 
B|-------------------------------------------------------| 
G|-------------------------------------------------------| 
D|-6--6-------4--4-------------4-------------------------| 
A|-------6----------4----2--2----------------------------| 
E|-------------------------------------------------------| 

E|-------------------------------------------------------| 
B|-------------------------------------------------------| 
G|-------------------------------------------------------| 
D|-----------------------2--2----------------------------| 
A|-------6----------4----------2-------------------------| 
E|-4--4-------2--2---------------------------------------| 
		  

See also:

tabs Geraldo Vandré - para não dizer que não falei das flores tabs Simone - Então é Natal (Solo) tabs Chico Buarque - Ciranda da Bailarina tabs Gonzaguinha - O Que é O Que é (É a vida) tabs Waldir Azevedo - Brasileirinho tabs Chico Buarque - Valsinha
e-chords

Other versions:

tabs O Teatro Mágico - Consagração Da Raiz
auto scroll beats size up size down change color hide chords drawings
tab show chords e-chords YouTube Clip e-chords hide all tabs e-chords go to top tab

share