Night Beats

Love Ain't Strange (everything Else Is)

Night Beats

tabs

by  BRUNBLAZKOWSKI

save to print version add songbook text version e-mail correct tuner
chordsukulelecavacokeyboardtabbassdrumsharmonicaflute Guitar Pro
close

there isn't a video lesson for this song

chords

Love Ain't Strange (everything Else Is)

	  		
Riff: 

E|------------------------------------------------------ 
B|------------------------------------------------------ 
G|------------------------------------------------------ 
D|-----2------0-----------------2------0-----0---------- 
A|--------0h2----0-----------------0h2---0h2------------ 
E|--0---------------3--------0------------------3------- 


VERSES AND Chorus 

E and D 

(There's only this two chords. Listen to the song to get the rhythm, it's pretty easy) 

Solo: 
(lot of reverb and tremolo effect) 

E|------------------------------------------------------------------------------------------------ 
B|-------------15------------------------------------------15------------------------------------- 
G|-14b12---------------14b12--------------------14b12--------------14b12--------------12----12---- 
D|---------14----------------14-14--14-12h14-----------14----------------14-14--12h14----14------- 
A|------------------------------------------------------------------------------------------------ 
E|------------------------------------------------------------------------------------------------ 


E|----------------------------------------------------------------------------------------------------- 
B|-------------15--------------------------------------12-----12----12-----12-------------------------- 
G|-14b12---------------14b12-------------12----12--14b----14b----14b----14b----14b-14b-14b-14b-14b-14b... 
D|---------14-----------------14-14-12h14----14-------------------------------------------------------- 
A|----------------------------------------------------------------------------------------------------- 
E|-----------------------------------------------------------------------------------------------------  
		  

Full key step upFull key step up
Half key step upHalf key step up
Half key step downHalf key step down
Full key step downFull key step down
hide glossary

See also:

tabs Deep Purple - Deep Purple - Smoke On The Water tabs Ira! - Dias de Luta (Intro - Acustico Mtv) tabs Deep Purple - Smoke on The Water (ver.3) tabs Deep Purple - Into The Fire tabs Deep Purple - When a Blind man cries tabs Deep Purple - Highway Star
e-chords

Other versions:

tabs Night Beats - Love Ain't Strange (everything Else Is)
auto scroll beats size up size down change color hide chords drawings
tab show chords e-chords YouTube Clip e-chords hide all tabs e-chords go to top tab

share