Nasty Savage

No Sympathy

Nasty Savage

tabs

by  EDSOOLIVEIRA

save to print version add songbook text version e-mail correct tuner
chordsukulelecavacokeyboardtabbassdrumsharmonicaflute Guitar Pro
close

there isn't a video lesson for this song

chords

No Sympathy

	  		
Intro 
Gtr. 1 
e|---------|---------|---------|--------------------------------- 
B|---------|---------|---------|--------------------------------- 
G|----1-2--|---------|----1-2--|--------------------------------- 
D|---------|----3-2--|---------|-----3--------------------------- 
A|---------|---------|---------|-----1--5------------------------ 
E|--0------|--0------|--0------|--0-----3------------------------ 

Gtr. 2 
e|---------|---------|---------|--------------------------------- 
B|---------|---------|---------|--------------------------------- 
G|---------|---------|---------|--------------------------------- 
D|----0-2--|---------|----0-2--|----3---------------------------- 
A|---------|----3-2--|---------|----1-5-------------------------- 
E|--0------|--0------|--0------|--0---3-------------------------- 

Riff 1 
e|------------------|-----------|--------------------------------- 
B|------------------|-----------|--------------------------------- 
G|------------------|-----------|------4-5------------------------ 
D|------------------|------5-3--|------2-3------------------------ 
A|------------------|--5-3-3-1--|--5-3---------------------------- 
E|--0-0-0000-0-000--|--3-1------|--3-1---------------------------- 

Riff 2                                                                
e|---------------------|---------------------|---------------------|----------- 
B|---------------------|---------------------|---------------------|----------- 
G|--------------0h2-1--|---------------------|--------------0h2-1--|----------- 
D|----2-3-----2--------|----2-3-----2-3h5-3--|----2-3-----2--------|----------- 
A|--------1-3----------|--------1-3----------|--------1-3----------|----------- 
E|--0------------------|--0------------------|--0------------------|----------- 

end 1 
e|--------------------|----------- 
B|--------------------|----------- 
G|-------------4-3----|----------- 
D|----2-3----5-2-1-3--|----------- 
A|--------1--3-----1--|----------- 
E|--0-----------------|----------- 

end 2 
e|---------------------|----------- 
B|---------------------|----------- 
G|---------------------|----------- 
D|----2-3----5-3-------|----------- 
A|--------1--3-1--5-3--|----------- 
E|--0-------------3-1--|----------- 

Riff 3                                 end with this 
e|-----------------------------------|-------------------------------------------- 
B|-----------------------------------|-------------------------------------------- 
G|-----------------------------------|--11-11-11-11--------------11----11--------- 
D|-----------------------------------|---9--9--9--9--10-10-10-10--9-10--9--9------ 
A|--222-444-555-777-888-999-888-333--|----------------8--8--8--8-----8-----7\----- 
E|--000-222-333-555-666-777-666-111--|-------------------------------------------- 

Riff 4 
e|----------------------------------------------------------|-------- 
B|----------------------------------------------------------|-------- 
G|-------------------------------------------------------3--|-------- 
D|-------------------------------------------------------3--|-------- 
A|-------------------------------------------------------1--|-------- 
E|--0-0-0000-0-0000-0-0000-0-0000-0-0000-0-0000-0-0000------|-------- 

Verse riff 
e|----------------------------------------------|------------|--------------- 
B|----------------------------------------------|------------|--------------- 
G|----------------------------------------------|------------|-------4-5----- 
D|----------------------------------------------|-------5-3--|-------2-3----- 
A|----------------------------------------------|--5-3--3-1--|--5-3---------- 
E|--0-0-0000-0-0000-0-0000-0-0000-0-0000-0-000--|--3-1-------|--3-1---------- 

Riff 5 
e|---------|---------|--------------|---------|---------|-------------------- 
B|---------|---------|--------------|---------|---------|-------------------- 
G|---------|---------|--------------|---------|---------|-------------------- 
D|--9------|---------|----------10--|--9------|---------|-------------------- 
A|--77777--|--7------|--7/8------8--|--77777--|--7------|---------7-8-------- 
E|---------|--55555--|--5/66666-----|---------|--55555--|--7-8-10-----10----- 

Riff 5b 
e|---------|---------|-----------|------ 
B|---------|---------|-----------|------ 
G|---------|---------|-----------|------ 
D|--9------|---------|-----------|------ 
A|--77777--|--7------|--7/8------|------ 
E|---------|--55555--|--5/66666--|------ 

Riff 6 
e|---------|---------|---------|-----|------ 
B|---------|---------|---------|-----|------ 
G|---------|---------|---------|-----|------ 
D|---------|---------|---------|--3--|------ 
A|--7------|--2------|--3------|--1--|------ 
E|--55555--|--00000--|--11111--|-----|------ 
		  

See also:

tabs Metallica - Enter Sandman (versão 3) tabs Metallica - Mama Said tabs Megadeth - In My Darkest Hour tabs Metallica - Welcome home(sanitarium) (Live) tabs Metallica - The Thing That Should Not Be tabs Metallica - Tuesday's Gone
e-chords

Other versions:

tabs Nasty Savage - No Sympathy
auto scroll beats size up size down change color hide chords drawings
tab show chords e-chords YouTube Clip e-chords hide all tabs e-chords go to top tab

share