Nasty Savage

Metal Knights

Nasty Savage

tabs

by  EDSOOLIVEIRA

save to print version add songbook text version e-mail correct tuner
chordsukulelecavacokeyboardtabbassdrumsharmonicaflute Guitar Pro
close

there isn't a video lesson for this song

chords

Metal Knights

	  		Riff 1 x8 
e|-------------------|-------------------| 
B|-------------------|-------------------| 
G|-------------------|-------------------| 
D|-------------------|-------------------| 
A|-------------------|------------2------| 
E|--2-2-2-2-2-2-2-2--|--5-3-5-3-5---5-3--| 

Fig. 1 x2 
e|-----------------|-----------------| 
B|-----------------|-----------------| 
G|-----------------|-----------------| 
D|-----------------|----------4---7--| 
A|--4---4---9---7--|--4---4---2---5--| 
E|--2---2---7---5--|--2---2----------| 

Repeat Riff 1 x9 
Repeat Fig. 1 x2 

Riff 2 x2 (under solo) 
e|-------------------------------------------------------------------| 
B|-------------------------------------------------------------------| 
G|-------------------------------------------------------------------| 
D|-------------------------------------------------------------------| 
A|--777-777-777-777-555-555-555-555-333-333-333-333-555-555-555-555--| 
E|-------------------------------------------------------------------| 

Fig. 2 x6 
e|-----------------------------|------------------------------| 
B|-----------------------------|------------------------------| 
G|-----------------------------|------------------------------| 
D|------------------7-11-9-12--|------------------12----------| 
A|------------------5--9-7-10--|------------------10-12-10-9--| 
E|--0-0-0-0-0-0-0-0------------|--0-0-0-0-0-0-0-0----10--8-7--| 

Repeat Riff 1 x8 
Repeat Fig. 1 x2 

Fig. 3 x2 
e|--------------|--------------| 
B|--------------|--------------| 
G|--------------|--------------| 
D|--11----------|--11----------| 
A|---9----9--7--|---9----9-12--| 
E|--------7--5--|--------7-10--| 

                                                                           D|-----| 
                                                                           A|--4--| 
End with some speed picking on the second fret of the E string, and this   E|--2--| 
		  

See also:

tabs Metallica - Enter Sandman (versão 3) tabs Metallica - Mama Said tabs Megadeth - In My Darkest Hour tabs Metallica - Welcome home(sanitarium) (Live) tabs Metallica - The Thing That Should Not Be tabs Metallica - Tuesday's Gone
e-chords

Other versions:

tabs Nasty Savage - Metal Knights
auto scroll beats size up size down change color hide chords drawings
tab show chords e-chords YouTube Clip e-chords hide all tabs e-chords go to top tab

share