Nasty Savage

Dungeon Of Pleasure

Nasty Savage

tabs

by  EDSOOLIVEIRA

save to print version add songbook text version e-mail correct tuner
chordsukulelecavacokeyboardtabbassdrumsharmonicaflute Guitar Pro
close

there isn't a video lesson for this song

chords

Dungeon Of Pleasure

	  		Riff 1 x2 
e|---------------------------------------|--------------------------------------| 
B|---------------------------------------|--------------------------------------| 
G|---------------------------------------|--------------------------------------| 
D|----------------------------------3-5--|-----------------------------------5--| 
A|-----7-----5v-------7------5v-----1-3--|-----7-----5v-------7------5v----3-3--| 
E|--0-----0-------0------0-------0-------|--0-----0-------0------0-------0-1----| 

Riff 2 x2 
e|--------------------------------|---------------------------------| 
B|--------------------------------|---------------------------------| 
G|--------------------------------|---------------------------------| 
D|---------------------------3-5--|------------------------------5--| 
A|------------------5v-------1-3--|------------------5v--------3-3--| 
E|--0-0-0-0-0-0-0-0----0-0-0------|--0-0-0-0-0-0-0-0----0-0-0--1----| 

Fig. 1 x1 
e|---------------------------------------| 
B|---------------------------------------| 
G|---------------------------------------| 
D|--3-----------------5------------------| 
A|--1-111-111-111-111-3-333-333-333-333--| 
E|---------------------------------------| 

Repeat Riff 2 x2 
Repeat Fig. 1 x4 
Repeat Riff 1 x4 

Fig. 2 x2 (under solo) 
e|--------------------------------| 
B|--------------------------------| 
G|--------------------------------| 
D|--------------------------------| 
A|--7--7----3--3----5--5----2--2--| 
E|--5--5----1--1----3--3----0--0--| 

Fig. 3 x1 (under solo) 
e|------------------------------------------------------------| 
B|------------------------------------------------------------| 
G|------------------------------------------------------------| 
D|----------------------------------7--7----7--7----9--9---9--| 
A|--3--3----5--5----2--2----3--3----5--5----5--5----7--7---7--| 
E|--1--1----3--3----0--0----1--1------------------------------| 

Fig. 4 x4 (under solo) 
e|---------------------------------------| 
B|---------------------------------------| 
G|---------------------------------------| 
D|---------------------------------------| 
A|--7--7----3--3----5--5---3-2----3-2----| 
E|--5--5----1--1----3--3-------5------5--| 

Riff 3 x8 
e|-----------------------------------| 
B|-----------------------------------| 
G|-----------------------------------| 
D|-----------------------------------| 
A|----------------1---------3-2-0-1--| 
E|--0-0-0-0-3-2-0---0-0-3-0----------| 

Repeat Riff 1 x2 
Repeat Riff 2 x2 
Repeat Fig. 1 x4 
Repeat Riff 1 x2 
		  

See also:

tabs Metallica - Enter Sandman (versão 3) tabs Metallica - Mama Said tabs Megadeth - In My Darkest Hour tabs Metallica - Welcome home(sanitarium) (Live) tabs Metallica - The Thing That Should Not Be tabs Metallica - Tuesday's Gone
e-chords

Other versions:

tabs Nasty Savage - Dungeon Of Pleasure
auto scroll beats size up size down change color hide chords drawings
tab show chords e-chords YouTube Clip e-chords hide all tabs e-chords go to top tab

share