Naruto

home > Naruto

Victory Tab

Naruto

Difficulty: nolevelnolevel

by terr%5Fschmitz

tuner correct add songbook print version text version save to e-mail
chordsukulelecavacokeyboardtabbassdrumsharmonicsflute Guitar Pro
chords

Victory

  		 
E|------------------------------------------------------------------------------------| 
B|------------------------------------------------------------------------------------| 
G|---------------------------------------------------14--16-17------------------------| 
D|------14--14-15-12--12--14-15--17--12--15--14--10------------17--17-15-14-14-15-12--| 
A|--10--------------------------------------------------------------------------------| 
E|------------------------------------------------------------------------------------| 
 

 
E|------------------------------------------------------------------------------------| 
B|------------------------------------------------------------------------------------| 
G|------------------------------------------------------------------------------------| 
D|------14--14-15-12--12--14-15--17--12--15--14--10--10-14-12--12-10-10---------------| 
A|--10--------------------------------------------------------------------------------| 
E|------------------------------------------------------------------------------------| 
 

 
E|------------10--------------8--8-10-12-12-10-10--8-12-10----------------------------| 
B|--10--10-10-----12-10-8--5----------------------------------------------------------| 
G|------------------------------------------------------------------------------------| 
D|------------------------------------------------------------------------------------| 
A|------------------------------------------------------------------------------------| 
E|------------------------------------------------------------------------------------| 
 

 
E|-----------------------------------------------------------------------------------| 
B|-----------------------------------------------------------------------------------| 
G|---------------------------------------------------14--16-17-----------------------| 
D|------14--14-15-12--12--14-15--17--12--15--14--10------------17--17-15-14-14-15-12-| 
A|--10-------------------------------------------------------------------------------| 
E|-----------------------------------------------------------------------------------| 
 

 
E|-----------------------------------------------------------------------------------| 
B|-----------------------------------------------------------------------------------| 
G|-----------------------------------------------------------------------------------| 
D|------14--14-15-12--12--14-15--17--12--15--14--10--10-14-12--12-10-10--------------| 
A|--10-------------------------------------------------------------------------------| 
E|-----------------------------------------------------------------------------------| 
	  

Search Paypal
auto scroll beats size up size down change color hide chords drawings
tab show chords e-chords YouTube Clip e-chords hide all tabs e-chords go to top tab