Naruto

home > Naruto

Loneliness Tab

Naruto

Difficulty: nolevelnolevel

by carlluz

tuner correct add songbook print version text version save to e-mail
chordsukulelecavacokeyboardtabbassdrumsharmonicsflute Guitar Pro
chords

Loneliness

  		
E|--1-----3-----5-----1-----6-----0-----5--------5-----3-----0--------0-----1--------| 
B|--3-----2-----3-----3-----5-----2--------------------5-----2--------------------3--| 
G|--------------------------------0-----7--------7--------------------0-----2--------| 
D|--0-----2-----3-----0-----5-----------7--------7-----5-----2--------------------3--| 
A|--------------------------------------------------------------------0-----4-----5--| 
E|-----------------------------------------------------------------------------------| 

E|--------------0-----------1-----------------------------------| 
B|--------------------------------------1--------3--------------| 
G|-----------2-----------2-----------2-----------------0--------| 
D|--------0-----------0-----------0-----------------------------| 
A|--------------------------------------------1-----3-----------| 
E|--------------------------------------------------------------| 

E|--1-----3-----5-----1-----6-----0-----5--------5-----3-----0--------0-----1--------| 
B|--3-----2-----3-----3-----5-----2--------------------5-----2--------------------3--| 
G|--------------------------------0-----7--------7--------------------0-----2--------| 
D|--0-----2-----3-----0-----5-----------7--------7-----5-----2--------------------3--| 
A|--------------------------------------------------------------------0-----4-----5--| 
E|-----------------------------------------------------------------------------------| 

E|--1-----3-----5-----1-----6-----0-----5--------5-----3-----0--------0-----1--------| 
B|--3-----2-----3-----3-----5-----2--------------------5-----2--------------------3--| 
G|--------------------------------0-----7--------7--------------------0-----2--------| 
D|--0-----2-----3-----0-----5-----------7--------7-----5-----2--------------------3--| 
A|--------------------------------------------------------------------0-----4-----5--| 
E|-----------------------------------------------------------------------------------| 
	  

Search Paypal
auto scroll beats size up size down change color hide chords drawings
tab show chords e-chords YouTube Clip e-chords hide all tabs e-chords go to top tab