Naruto

home > Naruto

Shirorae Tab

Naruto

Difficulty: BeginnerBeginner

by play00

tuner correct add songbook print version text version save to e-mail
chordsukulelecavacokeyboardtabbassdrumsharmonicsflute Guitar Pro
chords

Shirorae

	  Shirohae 

e-----------------|-----------------|---------------------|-----------------|  
B--------3---1----|--------0---1----|---------1-3-----5/1-|---------1-------|  
G----2---2---2----|----2---2---2----|-0h2---2-------2-----|-2---2-----2---2-|  
D------2---2------|------2---2------|-----2-------2-------|-3-3---3-----3---|  
A----0------------|----0------------|-0-------------------|-3---------------|  
E-----------------|-----------------|---------------------|-----------------|  

e-----------------|-1h3-0-----------|---------------------|-----------------------|  
B---------1-3-----|-----1-------1---|-5-8-8/10------------|-8-5-3/5---------------|  
G-0h2---2-------2-|---------0-----0-|----------0---0----0-|---------0---0-5-0---0-|  
D-----0-------0---|-------2---2-----|----------------10---|-----------------------|  
A-----------------|-----3-----------|-----8------8--------|-----3-----3-------3---|  
E-3---------------|-----------------|---------------------|-----------------------|  

e---------0---------|-----------------|-----------------|  
B-0h3-------1-----0-|---------1-------|---------1-------|  
G-----0-------0-----|-2---2-----2---2-|-----2-----------|  
D-------0-------0---|---3---3-----3---|---3---3---------|  
A-------------------|-3---------------|-3---------------|  
E-3---------1-------|-----------------|-----------------|  

e-----------8-------|-7---5---3-------|-5---7---8-------|-0---1---3---------|  
B-3h5---------------|-----------------|-----------------|-----1---1---------|  
G-------0-------0---|---0---0-----0---|---0---0-----0---|---0---0-------0---|  
D-----0---0---0---0-|-----------0---0-|-3---------0---0-|-------------2---2-|  
A-------------------|-----------------|---------8-------|-3-----------------|  
E-5---------5-------|-3-------3-------|-----------------|-------------------|  

e---------3h5-------|-8---7---5-------|-7-------3-------|-3h5--------8---7---|  
B-3-----------------|-----------------|-----------------|--------------------|  
G-----0---------0---|---0---0-----0---|-----0-------0---|-------0----0-0---0-|  
D-3-3---3-3---3---3-|-----------0---0-|---0---0---0---0-|-3---3---3----------|  
A-------------------|-----------------|-----------------|--------------------|  
E-------------------|-5-------5-------|-3-------3-------|--------------------|  

e-----------8-------|-7---5---3-------|-5---7---8-------|-----0---1---3---------|  
B-3h5---------------|-----------------|-----------------|-----1---1---1---------|  
G-------0-------0---|---0---0-----0---|---0---0-----0---|-------0---0-------0---|  
D-----0---0---0---0-|-----------0---0-|-3---------0-----|-----------------2---2-|  
A-------------------|-----------------|---------8-------|-0-2-3-----------------|  
E-5---------5-------|-3-------3-------|-----------------|-----------------------|  

e---------3h5-------|-8---7---5-------|-7-------3-------|-3h5--------8---7---5h7---|  
B-3-----------------|-----------------|-----------------|--------------------------|  
G-----0---------0---|---0---0-----0---|-----0-------0---|-------0----0-0---0-------|  
D-3-3---3-3---3---3-|-----------0---0-|---0---0---0---0-|-3---3---3--------------0-|  
A-------------------|-----------------|-----------------|--------------------------|  
E-------------------|-5-------5-------|-3-------3-------|--------------------5-----|  

E-------|-----------------|---------------------|-----------------|  
B-3---1-|--------0---1----|---------1-3-----5/1-|-----------------|  
G-2---2-|----2---2---2----|-0h2-----------------|-2---------------|  
D-------|------2---2------|---------------------|-3---------------|  
A---0---|----0------------|-0-------------------|-3---------------|  
E-------|-----------------|---------------------|-----------------|  

e-----------------|-1h3-0---------------|--------------------|---------------------------|  
B---------1-3-----|-----1-------0h1-0---|-5-8-8h10-----------|-8/5-5/3-3h5---------------|  
G-0h2-----------2-|---------0---------0-|----------0---0---0-|-------------0---0-5-0---0-|  
D-------------0---|-------2---2---------|---------------10---|---------------------------|  
A-----------------|-----3---------------|-----8------8-------|---------3-----3-------3---|  
E-3---------------|---------------------|--------------------|---------------------------|  

e---------0---------|-----------------|-5---------------|-----------------0-|  
B-0h3-------1-----0-|---------1-------|---------1-------|---------1-------0-|  
G-----0-------0-----|-2---2-----2---2-|-----2-----2---2-|-2---2-------2---2-|  
D-------0-------0---|---3---3-----3---|---3---3-----3---|---2---2---2---2-2-|  
A-------------------|-3---------------|-----------------|-0---------------0-|  
E-3---------1-------|-----------------|-----------------|-----------------0-| 
	  

there isn't a video lesson for this song

request
Search Paypal
auto scroll beats size up size down change color hide chords drawings
tab show chords e-chords YouTube Clip e-chords hide all tabs e-chords go to top tab