Naruto

home > Naruto

Sha La La Tab

Naruto

Difficulty: ExpertExpert

by abelamin

tuner correct add songbook print version text version save to e-mail
chordsukulelecavacokeyboardtabbassdrumsharmonicsflute Guitar Pro
chords

Sha La La

  		 
E|--------5---------10-------------|--0--1--3--3--3-0---0--------| 
B|--6--8----6----10----10-10---8---|--------1---------1-----6--6-| 
G|------------7----------------9---|--------0--------------------| 
D|---------------------------------|------------------------7----| 
A|---------------------------------|--------0-----0-------5------| 
E|--------6------------------8-----|-----------------------------| 
 

 
E|--------5-------10--------------|--8----------------6-5-------| 
B|--6--8--6----10----10-10---8--8-|-----10--8--6-8----8-7-------| 
G|---------------------------9----|-----------------------------| 
D|--0-----------------------------|---------7------0-------0--0-| 
A|--------------------------------|---------5-------------------| 
E|--------6----------------8------|--8--------------------------| 
 

 
E|------------1-0-1-1--0-1-3--3-1-|--0-1p-0--------5--5--3-1-3-1----| 
B|--------------------------------|---------1p-(0)-3----------------| 
G|------------2-----2------2------|----2-----------3-----------2----| 
D|--L-0--------------------0------|----0-----------------------0----| 
A|------12---1-----0--------------|----------------------0----------| 
E|--------------------------------|----------------3----------------| 
 

 
E|--------5--5--5-----3--3---|--0--1--3--3--3-0---0------| 
B|--6--8--6--6----6---5--5---|--------1--1------1----6---| 
G|------------------7--------|--------0--0---------------| 
D|---------------------------|--------------------0--7---| 
A|--------------------3--3---|--------0--0-----------5---| 
E|--------6--6---------------|---------------------------| 
 

 
E|--------5--5--5-5---3--3----|--8--5------------6-5---5-5-| 
B|--6--8--6--6--------5--5--8-|--------8--6-8----8-7-------| 
G|------------------7---------|-------------0--------------| 
D|--0--0----------------------|--------7--7---0----------0-| 
A|--------------------3--3----|--0--0--5--5----------------| 
E|--------6--6----------------|----------------------------| 
 

 
E|--L-6--8---------8-10-8---6--5--|----------------5--5-3p-1-------| 
B|---------6----6-----------5--5--|--8--8-8-L-6-8------------3--3--| 
G|---------7----7-----------------|---------------------0-------0--| 
D|---------5----5-----------------|-------7-L---7---------------3--| 
A|------------------------0----0--|-------5-L---5------------------| 
E|--------------------------------|--------------------------------| 
 

 
E|------0-----------0-1-3-0-1-3--|--------8----6-----------------| 
B|----3---6-3-5-6----------------|--1-1-1-6-------9--6-6-6-6---L-| 
G|--------------3-------0-----0--|--------6-------6--------6---L-| 
D|-------------------------------|--------6-------6--------6---L-| 
A|----------------------0-----0--|--------6----------------------| 
E|--------3-----3----------------|--------6-------6--------6---L-| 
 

 
E|--------------------------3-5----|--------5--------10--------------| 
B|--6--9--8--6--8-----------1-3----|--6--8--6-----10----10-10---8----| 
G|--------------9---------0-0-0----|----------------------------9--9-| 
D|-------------10-------2-----0----|--0--0---------------------------| 
A|--------------------3------------|---------------8-----------------| 
E|-----6--------8-0-3--------------|--------6--6--------------8------| 
 

 
E|-------------------------------|--------5--------10--------------| 
B|----------8-----8-5---5---6--6-|--6--8--6-----10----10-10---8--8-| 
G|---9--10--5---------5----------|-----5----------------------9----| 
D|--10---8--5---------------7----|--7------------------------------| 
A|----------0--0--0-------5------|--5--5---------8-----------------| 
E|---8---8-----------------------|--------6--6--------------8------| 
 

 
E|--8----------------6-5-------|--------5--------10--------------| 
B|--8--10--8--6-8----8-7-------|--6--8--6-----10----10-10---8----| 
G|--9---9-------0--------------|-----5----------------------9--9-| 
D|---------7--7---0------0--0--|--7------------------------------| 
A|---------5--5----------------|--5--5---------8-----------------| 
E|--8---8----------------------|--------6--6--------------8------| 
 

 
E|-------------------------------|--------5--------10--------------| 
B|----------8-----8-5---5---6--6-|--6--8--6-----10----10-10---8--8-| 
G|---9--10--5---------5----------|-----5----------------------9----| 
D|--10---8--5---------------7----|--7------------------------------| 
A|----------0--0--0-------5------|--5--5---------8-----------------| 
E|---8---8-----------------------|--------6--6--------------8------| 
 

 
E|--8----------------6-5-------|--------5-3------------8-------| 
B|--8--10--8--6-8----8-7-------|----3-3---3-------8-8--8-------| 
G|--9---9-------0--------------|-----------------------9-------| 
D|---------7--7---0------0--0--|--0-------------------10-------| 
A|---------5--5----------------|----------1--1--1-----10-------| 
E|--8---8----------------------|-----------------------8--8--8-| 
 

 
E|--8----8----10----0-1-3---3-1-0-1h-|--0--------5--5--3-1-3-1------| 
B|----10-------7---------------------|----1p-(0)-3------------------| 
G|-------------7------------------2--|-----------3-----------2------| 
D|---------0------0-------0-------0--|-----------------------0------| 
A|-----------------------------------|-----------------0------------| 
E|-----------------------------------|-----------3------------------| 
 

E|--L----------------|-------------------|| 
B|-------------------|-------------------|| 
G|--L----------------|-------------------|| 
D|--L----------------|-------------------|| 
A|-------------------|-------------------|| 
E|-------------------|-------------------|| 
	  

Search Paypal
auto scroll beats size up size down change color hide chords drawings
tab show chords e-chords YouTube Clip e-chords hide all tabs e-chords go to top tab