Naruto

home > Naruto

Sasuke Theme Tab

Naruto

Difficulty: ExpertExpert

by deivcavalcanti

tuner correct add songbook print version text version save to e-mail
chordsukulelecavacokeyboardtabbassdrumsharmonicsflute Guitar Pro
chords

Sasuke Theme

	  (base) 
 
E|--------------------------------------| 
B|--------------------------------------| 
G|--------------------------------------|   (4x) 
D|--------------------------------------| 
A|------3-3/5/3--1-3-3------3-3/5/3--1-1| 
E|------1-1/3/1--3-5-5------1-1/3/1--3-3| 
 


(lead) 
E|------------13-15-12--------|  |---------------------------| 
B|------15~~~~---------13-15~~|  |----13-10~~~~6-8-6-8-8/10-8| 
G|--12~~~~--------------------|  |--12-----------------------| 
D|----------------------------|x2|---------------------------| 
A|----------------------------|  |---------------------------| 
E|----------------------------|  |---------------------------| 
	  

Search Paypal
auto scroll beats size up size down change color hide chords drawings
tab show chords e-chords YouTube Clip e-chords hide all tabs e-chords go to top tab