Naruto

home > Naruto

Alive Tab

Naruto

Difficulty: ExpertExpert

by TiagoEvan

tuner correct add songbook print version text version save to e-mail
chordsukulelecavacokeyboardtabbassdrumsharmonicsflute Guitar Pro
chords

Alive

	  Principal: 

PARTE 1 
E|------------------------------------| 
B|------------------------------------| 
G|-----4------------------------------| 
D|---4---4------4--------6--------2---| 
A|-2----------4---4----6---6----2---2-| 
e|----------2--------4--------0-------|         

PARTE 2                                           --> Repita a música inteira 
E|------------------------------------|         
B|------------------------------------|   
G|-----4------------------------4-----|   
D|---4---4------4-------------4---4---|   
A|-2----------4---4--7-6-4--2---------|   
e|----------2-------------------------| 

Solo: 

E|------------------------------------11--9-7-9--9-7------------------| 
B|----------------7-9-11-12--14-12-14----------------9-7-9------------| 
G|-8--6---6----6-8-----------------------------------------6-8------6-| 
D|------9----9-------------------------------------------------9--9---| 
A|--------------------------------------------------------------------| 
e|--------------------------------------------------------------------| 

Pós solo: 
          Parte 1                           Parte 2 
------------------------------          
         E|-9-\-7-|                    E|-7-/-11-9-\-7-| 
Toca a   B|-------| Toca a             B|--------------| 
Parte 1  G|-------| Parte 2            G|--------------| 
e depois D|-------|                    D|--------------| 
         A|-------|                    A|--------------| 
         e|-------|                    e|--------------| 

Obs: Parte 1 do pós solo é tocada 4x, e a parte 2 do pós solo é tocada na 4ª parte  
junto com o final da PARTE 2 do Principal 

	  

there isn't a video lesson for this song

request
Search Paypal
auto scroll beats size up size down change color hide chords drawings
tab show chords e-chords YouTube Clip e-chords hide all tabs e-chords go to top tab