Nancy Vandal

Egg Sandwich

Nancy Vandal

tabs

save to print version add songbook text version e-mail correct tuner
chordsukulelecavacokeyboardtabbassdrumsharmonicaflute Guitar Pro
close

there isn't a video lesson for this song

chords

Egg Sandwich

	  		Nancy Vandal 
 
Tabbed by Matt Roberts 
[email protected] 
 
Don't know if it goes like this on the album but this is how they played 
it on live at the wireless 
 
E|----------------------------------------------------------------------| 
B|----------------------------------------------------------------------| 
G|-2-2-2-2-2-2-2-2-2-2-2-2-2-2-2-2-2-2-2-2-2-2-2-2----------------------| 
D|-2-2-2-2-2-2-2-2-2-2-2-2-2-2-2-2-2-2-2-2-2-2-2-2-2-2-2-2-2-2-2-2-2-2--| 
A|-0-0-0-0-0-0-0-0-0-0-0-0-0-0-0-0-0-0-0-0-0-0-0-0-2-2-2-2-2-2-2-2-2-2--| 
E|-------------------------------------------------0-0-0-0-0-0-0-0-0-0--| 
intro, palm mute w/lotsa distortion 
 
E|----------------------------------------------------------------------| 
B|----------------------------------------------------------------------| 
G|---------------------------2-2-2-2-2-2-2-2-2-2-2-2-2-2-2-2-7-7-7-7-6--| 
D|-2-2-2-2-2-2-2-2-2-4-4-6-6-2-2-2-2-2-2-2-2-2-2-2-2-2-2-2-2-7-7-7-7-6--| 
A|-2-2-2-2-2-2-2-2-2-4-4-6-6-0-0-0-0-0-0-0-0-0-0-0-0-0-0-0-0-5-5-5-5-4--| 
E|-0-0-0-0-0-0-0-0-0-2-2-4-4--------------------------------------------| 
 
E|----------------------------------------------------------------------| 
B|----------------------------------------------------------------------| 
G|-6-4-4-2-2-2-2-2-2-2-2-7-7-7-7-7-7-7-7-2-2-2-2-2-2-2-2-2-2-2-2-4-4-6--| 
D|-6-4-4-2-2-2-2-2-2-2-2-7-7-7-7-7-7-7-7-2-2-2-2-2-2-2-2-2-2-2-2-4-4-6--| 
A|-4-2-2-0-0-0-0-0-0-0-0-5-5-5-5-5-5-5-5-0-0-0-0-0-0-0-0-0-0-0-0-2-2-4--| 
E|----------------------------------------------------------------------| 
 
E|----------------------------------------------------------------------| 
B|----------------------------------------------------------------------| 
G|-6-7-7-7-7-7-7-7-7----------------------------------------------------| 
D|-6-7-7-7-7-7-7-7-7----------------------------------------------------| 
A|-4-5-5-5-5-5-5-5-5----------------------------------------------------| 
E|----------------------------------------------------------------------| 
 
E|----------------------------------------------------------------------| 
B|----------------------------------------------------------------------| 
G|--6/7-7-7-6/7-7-7-6/7-7-7-6/7-7-7-6/7-7-7-6/7-7-7---------------------| 
D|--6/7-7-7-6/7-7-7-6/7-7-7-6/7-7-7-6/7-7-7-6/7-7-7-6/7-7-7-6/7-7-7-----| 
A|--4/5-5-5-4/5-5-5-4/5-5-5-4/5-5-5-4/5-5-5-4/5-5-5-6/7-7-7-6/7-7-7-----| 
E|--------------------------------------------------4/5-5-5-4/5-5-5-----| 
second bit 
 
E|----------------------------------------------------------------------| 
B|-----------------------------------------------------------8-8-8-7-5--| 
G|-------------------------4-6-7-7-7-6/7-7-7-6/7-7-7-6/7-7-7-7-7-7-6-4--| 
D|-6/7-7-7-6/7-7-7-6/7-7-7-4-6-7-7-7-6/7-7-7-6/7-7-7-6/7-7-7-5-5-5-4-2--| 
A|-6/7-7-7-6/7-7-7-6/7-7-7-2-4-5-5-5-4/5-5-5-4/5-5-5-4/5-5-5------------| 
E|-4/5-5-5-4/5-5-5-4/5-5-5----------------------------------------------| 
 
E|----------------------------------------------------------------------| 
B|-----------------8-8-8-8-8-8-8-8-------------------------5-7-8-----8--| 
G|-7-7-7-7-7-7-7-7-7-7-7-7-7-7-7-7-7-7-7-7-7-7-7-7-7-7-7-7-4-6-7-----7--| 
D|-7-7-7-7-7-7-7-7-5-5-5-5-5-5-5-5-7-7-7-7-7-7-7-7-7-7-7-7-2-4-5-----5--| 
A|-5-5-5-5-5-5-5-5-----------------5-5-5-5-5-5-5-5-5-5-5-5--------------| 
E|----------------------------------------------------------------------| 
 
 

		  

See also:

tabs The Veronicas - Mouth shut tabs Lee Kernaghan - High Country Solo tabs The Vines - Ride (ver. 2) tabs The Vines - Get Free tabs Lee Kernaghan - Hat Town tabs The Saints - Stranded
e-chords

Other versions:

tabs Nancy Vandal - Egg Sandwich
auto scroll beats size up size down change color hide chords drawings
tab show chords e-chords YouTube Clip e-chords hide all tabs e-chords go to top tab

share