Nancy Vandal

Bone Slacks Max

Nancy Vandal

tabs

save to print version add songbook text version e-mail correct tuner
chordsukulelecavacokeyboardtabbassdrumsharmonicaflute Guitar Pro
close

there isn't a video lesson for this song

chords

Bone Slacks Max

	  		Legend : 
 
b - bend up 
r - release bend 
 
 
e|---------------------------------- 
B|---------------------------------- 
G|---------------------------------- 
D|--3--3-3-3-3-3-3-3--3-3-3-3-3-3--- 2 times 
A|--3--3-3-3-3-3-3-3--3-3-3-3-3-3--- 
E|--1--1-1-1-1-1-1-1--1-1-1-1-1-1--- 
 
 
e|---------------------------------- 
B|---------------------------------- 
G|---------------------------------- 
D|--3--3-3-3-3-3-3-3--3-3-3-3-3-3--- 
A|--3--3-3-3-3-3-3-3--3-3-3-3-3-3--- 
E|--1--1-1-1-1-1-1-1--1-1-1-1-1-1--- 
 
 
   There's one timeless hipster that I 
 
e|---------------------------------- 
B|---------------------------------- 
G|--5--5-5-5-5-5-5------------------ 
D|--5--5-5-5-5-5-5-5--5-5-5-5-5-5--- 
A|--3--3-3-3-3-3-3-5--3-3-3-3-3-3--- 
E|-----------------3--3-3-3-3-3-3--- 
 
 
    Know 
e|---------------------------------- 
B|---------------------------------- 
G|---------------------------------- 
D|--3--3-3-3-3-3-3-3--3-3-3-3-3-3--- 
A|--3--3-3-3-3-3-3-3--3-3-3-3-3-3--- 
E|--1--1-1-1-1-1-1-1--1-1-1-1-1-1--- 
 
 
   Cause bone slacks Max, please don't stare 
 
e|---------------------------------- 
B|---------------------------------- 
G|---------------------------------- 
D|--3--3-3-3-3-3-3-3--3-3-3-3-3-3--- 
A|--3--3-3-3-3-3-3-3--3-3-3-3-3-3--- 
E|--1--1-1-1-1-1-1-1--1-1-1-1-1-1--- 
 
 
e|---------------------------------- 
B|---------------------------------- 
G|--5--5-5-5-5-5-5------------------ 
D|--5--5-5-5-5-5-5-5--5-5-5-5-5-5--- 
A|--3--3-3-3-3-3-3-5--3-3-3-3-3-3--- 
E|-----------------3--3-3-3-3-3-3--- 
 
 
                   Oh Yeah. 
 
e|---------------------------------- 
B|---------------------------------- 
G|-----7-----5-5-5----7-----5-5-5--- 
D|--3--7--5--5-5-5-3--7--5--5-5-5--- 
A|--3--5--5--3-3-3-3--5--5--3-3-3--- 
E|--1-----3--------1-----3---------- 
 
 
   Ah ha na na na na 
 
e|---------------------------------- 
B|---------------------------------- 
G|-----7-----5-5-5------------------ 
D|--3--7--5--5-5-5-3--3-3-3-3-3-3--- 
A|--3--5--5--3-3-3-3--3-3-3-3-3-3--- 
E|--1-----3--------1--1-1-1-1-1-1--- 
 
e|---------------------------------- 
B|---------------------------------- 
G|---------------------------------- 
D|--3--3-3-3-3-3-3-3--3-3-3-3-3-3--- 
A|--3--3-3-3-3-3-3-3--3-3-3-3-3-3--- 
E|--1--1-1-1-1-1-1-1--1-1-1-1-1-1--- 
 
 
e|---------------------------------- 
B|---------------------------------- 
G|---------------------------------- 
D|--3--3-3-3-3-3-3-3---------------- 
A|--3--3-3-3-3-3-3-3---------------- 
E|--1--1-1-1-1-1-1-1---------------- 
 
e|---------------------------------- 
B|---------------------------------- 
G|---------------------------------- 
D|--3--3-3-3-3-3-3-3--3-3-3-3-3-3--- 
A|--3--3-3-3-3-3-3-3--3-3-3-3-3-3--- 
E|--1--1-1-1-1-1-1-1--1-1-1-1-1-1--- 
 
 
   Oh Baby. 
 
e|---------------------------------- 
B|---------------------------------- 
G|---------------------------------- 
D|--3--3-3-3-3-3-3-3--3-3-3-3-3-3--- 
A|--3--3-3-3-3-3-3-3--3-3-3-3-3-3--- 
E|--1--1-1-1-1-1-1-1--1-1-1-1-1-1--- 
 
e|---------------------------------- 
B|---------------------------------- 
G|--5--5-5-5-5-5-5------------------ 
D|--5--5-5-5-5-5-5-5--5-5-5-5-5-5--- 
A|--3--3-3-3-3-3-3-5--3-3-3-3-3-3--- 
E|-----------------3--3-3-3-3-3-3--- 
 
e|---------------------------------- 
B|---------------------------------- 
G|---------------------------------- 
D|--3--3-3-3-3-3-3-3--3-3-3-3-3-3--- 
A|--3--3-3-3-3-3-3-3--3-3-3-3-3-3--- 
E|--1--1-1-1-1-1-1-1--1-1-1-1-1-1--- 
 
 
   Imitate him if you will 
 
e|---------------------------------- 
B|---------------------------------- 
G|---------------------------------- 
D|--3--3-3-3-3-3-3-3--3-3-3-3-3-3--- 
A|--3--3-3-3-3-3-3-3--3-3-3-3-3-3--- 
E|--1--1-1-1-1-1-1-1--1-1-1-1-1-1--- 
 
 
   He will shoot you down if looks could 
 
e|---------------------------------- 
B|---------------------------------- 
G|--5--5-5-5-5-5-5------------------ 
D|--5--5-5-5-5-5-5-5--5-5-5-5-5-5--- 
A|--3--3-3-3-3-3-3-5--3-3-3-3-3-3--- 
E|-----------------3--3-3-3-3-3-3--- 
 
 
   kill.           oh yeah. 
 
e|---------------------------------- 
B|---------------------------------- 
G|-----7-----5-5-5----7-----5-5-5--- 
D|--3--7--5--5-5-5-3--7--5--5-5-5--- 
A|--3--5--5--3-3-3-3--5--5--3-3-3--- 
E|--1-----3--------1-----3---------- 
 
 
    ah ha na na na na 
 
e|---------------------------------- 
B|---------------------------------- 
G|-----7-----5-5-5------------------ 
D|--3--7--5--5-5-5-3--3-3-3-3-3-3--- 
A|--3--5--5--3-3-3-3--3-3-3-3-3-3--- 
E|--1-----3--------1--1-1-1-1-1-1--- 
 
 
e|---------------------------------- 
B|---------------------------------- 
G|---------------------------------- 
D|--3--3-3-3-3-3-3-3--3-3-3-3-3-3--- 
A|--3--3-3-3-3-3-3-3--3-3-3-3-3-3--- 
E|--1--1-1-1-1-1-1-1--1-1-1-1-1-1--- 
 
 
e|---------------------------------- 
B|---------------------------------- 
G|---------------------------------- 
D|--3--3-3-3-3-3-3-3---------------- 
A|--3--3-3-3-3-3-3-3---------------- 
E|--1--1-1-1-1-1-1-1---------------- 
 
*interlude 
 
  oh baby 
 
e|---------------------------------- 
B|---------------------------------- 
G|---------------------------------- 
D|----------3-3-0--0-2-3-0---------- 
A|-------0-----------------3-0------ 
E|--1--1-----------------------1---- 
 
e|---------------------------------- 
B|---------------------------------- 
G|---------------------------------- 
D|------------3-3-0--0-2-3-0-------- 
A|---------0-----------------3-0---- 
E|--0-1--1-----------------------1-- 
 
  bone slacks max... 
 
e|---------------------------------- 
B|-----------------1-1-4-1-4-1------ 
G|--1b2r1-4b5r4--------------------- 
D|---------------------------------- 3 times 
A|---------------------------------- 
E|---------------------------------- 
 
e|---------------------------------- 
B|---------------------------------- 
G|--1b2r1-4b5r4--------------------- 
D|------------------3--------------- 
A|------------------3--------------- 
E|------------------1--------------- 
 
e|---------------------------------- 
B|---------------------------------- 
G|---------------------------------- 
D|----------3-3-0--0-2-3-0---------- 
A|-------0-----------------3-0------ 
E|--1--1-----------------------1---- 
 
e|---------------------------------- 
B|---------------------------------- 
G|---------------------------------- 
D|----------3-3-0--0-2-3-0---------- 
A|-------0-----------------3-0------ 
E|--1--1-----------------------1---- 
 
The lyrics here are for a guide, not timing. Sorry! 
 
Any comments, suggestions, corrections, other good tabs etc. 
e-mail me on [email protected] 
 
 

		  

See also:

tabs The Veronicas - Mouth shut tabs Lee Kernaghan - High Country Solo tabs The Vines - Ride (ver. 2) tabs The Vines - Get Free tabs Lee Kernaghan - Hat Town tabs The Saints - Stranded
e-chords

Other versions:

tabs Nancy Vandal - Bone Slacks Max
auto scroll beats size up size down change color hide chords drawings
tab show chords e-chords YouTube Clip e-chords hide all tabs e-chords go to top tab

share