Nancy Vandal

When I Squeeze My Nose I Sound Like Axl Rose

Nancy Vandal

tabs

save to print version add songbook text version e-mail correct tuner
chordsukulelecavacokeyboardtabbassdrumsharmonicaflute Guitar Pro
close

there isn't a video lesson for this song

chords

When I Squeeze My Nose I Sound Like Axl Rose

	  		Tabbed by Matt Roberts 
[email protected] 
 
E|--------------------------------------------------------------------------| 
B|--------7------7-----7-7--------------------7------7---7-7----------------| 
G|---7--7---9--9-----------9-7-----------7--7---9--9---------9-7------------| 
D|-----------------7------------7-7-7-7----------------7--------------------| 
A|------------------------------7-7-7-7-------------------------------------| 
E|------------------------------5-5-5-5-------------------------------------| 
Intro 
 
E|--------------------------------------------------------------------------| 
B|--------------------------------------------------------------------------| 
G|--7--------6-7---7--------6-7---7--9----6-7-------------------------------| 
D|--7-9-7--7-6-7---7-9-7--7-6-7---7--9-7--6-7-------------------------------| 
A|--5-9-7--7-4-5---5-9-7--7-4-5---5--7-7--4-5-------------------------------| 
E|----7-5--5---------7-5--5------------5------------------------------------| 
Chorus 
 
E|--------------------------------------------------------------------------| 
B|--------------------------------------------------------------------------| 
G|--7--7--7--------7-7---7--7--7-------7-7----------------------------------| 
D|--7--7--7--7--7--7-7---7--7--7--7--7-7-7----------------------------------| 
A|--5--5--5--7--7--5-5---5--5--5--7--7-5-5----------------------------------| 
E|-----------5--5-----------------5--5--------------------------------------| 
Solo fill 
 
 

		  

See also:

tabs The Vines - Im Only Sleeping tabs The Choirboys - Run To Paradise (solo) tabs Spiderbait - Black Betty tabs Powderfinger - Love Your Way tabs Ben lee - Something Borrowed, Something Blue tabs Xavier Rudd - No Woman, No Cry
e-chords

Other versions:

tabs Nancy Vandal - When I Squeeze My Nose I Sound Like Axl Rose
auto scroll beats size up size down change color hide chords drawings
tab show chords e-chords YouTube Clip e-chords hide all tabs e-chords go to top tab

share