My Sleeping Karma

Eleusine Coracana

My Sleeping Karma

tabs

by  ADALGOMES

save to print version add songbook text version e-mail correct tuner
chordsukulelecavacokeyboardtabbassdrumsharmonicaflute Guitar Pro
close

there isn't a video lesson for this song

chords

Eleusine Coracana

	  		
Intro 
e|---------------------------------------------------------------| 
B|---------------------------------------------------------------| 
G|---------------------------------------------------------------| 
D|-------------------10-7-9--------------------------------------| x8 
A|---7-7-7-7-7-7-7-7---------7-7-7-7-7-7-7-7--10-7-7-------------| 
E|---------------------------------------------------------------| 

e|---------------------------------------------------------------| 
B|---------------------------------------------------------------| 
G|-----------------------------------9---------------------------| 
D|-------------------10-7-9------------10-9----------------------| x8 
A|---7-7-7-7-7-7-7-7---------7-7-7-7---------7-10-7-7------------| 
E|---------------------------------------------------------------| 

Chorus 
e|---------------------------------------------------------------| 
B|---------------------------------------------------------------| 
G|---------------------------------------------------------------| 
D|---9--9--9--9-7---9--9--9--9-7---9--9--9--9-7---9--9--9--9-7---| x1 
A|---7--7--7--7-5---7--7--7--7-5---7--7--7--7-5---7--7--7--7-5---| 
E|---------------------------------------------------------------| 

Verse 
e|---------------------------------------------------------------| 
B|---------------------------------------------------------------| 
G|---9---7------7---------9---7--------9------9------------------| 
D|-----9---9-10---9-10------9---9-9-10---9-10---9-10-------------| x2 
A|---------------------------------------------------------------| 
E|---------------------------------------------------------------| 

Chorus 
e|---------------------------------------------------------------| 
B|---------------------------------------------------------------| 
G|---------------------------------------------------------------| 
D|---9--9--9--9-7---9--9--9--9-7---9--9--9--9-7---9--9--9--9-7---| x1 
A|---7--7--7--7-5---7--7--7--7-5---7--7--7--7-5---7--7--7--7-5---| 
E|---------------------------------------------------------------| 

Verse 
e|---------------------------------------------------------------| 
B|---------------------------------------------------------------| 
G|---9---7------7---------9---7--------9------9------------------| 
D|-----9---9-10---9-10------9---9-9-10---9-10---9-10-------------| x4 
A|---------------------------------------------------------------| 
E|---------------------------------------------------------------| 

Chorus 
e|---------------------------------------------------------------| 
B|---------------------------------------------------------------| 
G|---------------------------------------------------------------| 
D|---9--9--9--9-7---9--9--9--9-7---9--9--9--9-7---9--9--9--9-7---| x1 
A|---7--7--7--7-5---7--7--7--7-5---7--7--7--7-5---7--7--7--7-5---| 
E|---------------------------------------------------------------| 

e|---------------------------------------------------------------| 
B|---------------------------------------------------------------| 
G|---------------------------------------------------------------| 
D|-------------------10-7-9--------------------------------------| x2 
A|---7-7-7-7-7-7-7-7---------7-7-7-7-7-7-7-7--10-7-7-------------| 
E|---------------------------------------------------------------| 

e|---------------------------------------------------------------| 
B|---------------------------------------------------------------| 
G|-----------------------------------9---------------------------| 
D|-------------------10-7-9------------10-9----------------------| x4 
A|---7-7-7-7-7-7-7-7---------7-7-7-7---------7-10-7-7------------| 
E|---------------------------------------------------------------| 

Verse 
e|---------------------------------------------------------------| 
B|----------------------------------10-10---10-------------------| 
G|-----12-12---12-----11-11---11-----------------------9---------| 
D|---9-------9------9-------9-----9-------9----9-11-12---9-------| x10 
A|---------------------------------------------------------------| 
E|---------------------------------------------------------------| 

Chorus 
e|---------------------------------------------------------------| 
B|---------------------------------------------------------------| 
G|---------------------------------------------------------------| 
D|---9--9--9--9-7---9--9--9--9-7---9--9--9--9-7---9--9--9--9-7---| x1 
A|---7--7--7--7-5---7--7--7--7-5---7--7--7--7-5---7--7--7--7-5---| 
E|---------------------------------------------------------------| 

Verse 
e|---------------------------------------------------------------| 
B|----------------------------------10-10---10-------------------| 
G|-----12-12---12-----11-11---11-----------------------9---------| x4 
D|---9-------9------9-------9-----9-------9----9-11-12---9-------| 
A|---------------------------------------------------------------| 
E|---------------------------------------------------------------| 
		  

See also:

tabs Ira! - Vitrine Viva tabs Deep Purple - Black Knight tabs Deep Purple - Demonds Eye tabs Deep Purple - Smoke on the Water (ver. 2) tabs Deep Purple - Clearly Quite Absurd tabs Ira! - Envelheço na Cidade (intro)
e-chords

Other versions:

tabs My Sleeping Karma - Eleusine Coracana
auto scroll beats size up size down change color hide chords drawings
tab show chords e-chords YouTube Clip e-chords hide all tabs e-chords go to top tab

share