Músicas Natalinas

home > Músicas Natalinas

Noite Feliz Tab

Músicas Natalinas

Difficulty: BeginnerBeginner

by Acelot

tuner correct add songbook print version text version save to e-mail
chordsukulelecavacokeyboardtabbassdrumsharmonicsflute Guitar Pro
chords

Noite Feliz

  		
Introdução 


 e|----3--3--2--2--5--5---5---5-----5--5--3--3--7--7---7---7-| 
 B|----5--5--3--3--7--7---7---7-----7--7--5--5--8--8---8---8-| 
 G|----------------------------------------------------------| 
 D|-0-------------------0---0---0-0------------------0---0---| 
 A|----------------------------------------------------------| 
 E|----------------------------------------------------------| 




 e|-----7--7--5--5--8--8----8----8----10--8---5---2---5---3--| 
 B|-----8--8--7--7--10-10---10---10---12--10--7---3---7---3--| 
 G|-------------------------------------------------------4--| 
 D|-0-0-------------------0----0----0-----------0---0---0----| 
 A|----------------------------------------------------------| 
 E|----------------------------------------------------------| 



 1º Tema parte A e B 


 e|-----0--------------0-----------5---5-2-------3---3-------| 
 B|-3-----3-0------3-----3-0-------3-3-3-3-3-3---3-3-3-3-----| 
 G|-0-0-------0-0--0-0-------0-0---2-2-2-2-2-2---0-0-0-0-0-0-| 
 D|-0-0-------0-0--0-0-------0-0---0-----0-------------0-0-0-| 
 A|----------------------------------------------------------| 
 E|-3-------3------3-------3---------------------3-----3-----| 




 e|-1---1-3-2-0------0----------1---1-3-2-0------0-----------| 
 B|-0-0-0-1-1-1--3-----3-0------0-0-0-1-1-1--3-----3-0-------| 
 G|-0-0-0-0-0-0--0-0-------0-0--0-0-0-0-0-0--0-0-------0-0---| 
 D|--------------0-0-------0-0---------------0-0-------0-0---| 
 A|-3-----3---------------------3-----3----------------------| 
 E|--------------3-------3-------------------3-------3-------| 




 e|-5---5--8-5----3-----7------3-----------------------------| 
 B|-3-3-3--7-7-7--3-3-3--------3-3-0-3-1-----------0---------| 
 G|-2-2-2--7-7-7--0-0-0---0-0--0-----2---2-0---0h2---0-------| 
 D|-0------0--------------0-0--------0-------0----------0--0-| 
 A|------------------------------------------2----------2--2-| 
 E|---------------3-----3------3-----------3---------3-------| 




 e|--3-------------------------------------------------------| 
 B|--3-3-0-3-1-----------------------------------------------| 
 G|--0-----2---2-0-------------------------------------------| 
 D|--------0-------------------------------------------------| 
 A|----------------------------------------------------------| 
 E|--3-----------3-------------------------------------------| 





 Começo do 2º tema  



 e|--3-----0---------------3-----0---------------------------| 
 B|--3--3-----3--0---------3--3-----3--0---------------------| 
 G|--0--0-----------0--0---0--0-----------0--0---------------| 
 D|-----------------0--0------------------0--0---------------| 
 A|----------------------------------------------------------| 
 E|--3-----------3---------3-----------3---------------------| 





 3º Tema parte A e o começo da parte B 



 e|-10-------12-10-7-----------10-------12-10-7--------------| 
 B|------0-------------0---0--------0-------------0---0------| 
 G|----0---0---------0---0---0----0---0---------0---0---0----| 
 D|----------------------------------------------------------| 
 A|----------------9-----------7--------------5--------------| 
 E|-10-------------------------------------------------------| 




 e|-5-------5---2-----------3-------3----------------0---0---| 
 B|-----2-----------3---3-------3-------3------------1-1-1---| 
 G|---2---2---2---2---2---2---0---0---0-----0---0----0-0-0---| 
 D|---------------------------------------0---0---0----------| 
 A|-4-----------3-----------2------------------------3-------| 
 E|-------------------------------------3--------------------| 




 e|-3-2-0----------------------------0---0-3-2-0-------------| 
 B|-1-1-1--3----0h1-1--0-------------1-1-1-1-1-1--3----0h1-1-| 
 G|-0-0-0--0-0--0-0-0--0----0---0----0-0-0-0-0-0--0-0--0-0-0-| 
 D|--------0-0--0h2-2--0--0---0---0---------------0-0--0h2-2-| 
 A|-3--------------------------------3-----3-----------------| 
 E|--------3-----------3--------------------------3----------| 


  

 e|----------------------------------------------------------| 
 B|--0-------------------------------------------------------| 
 G|--0----0---0----------------------------------------------| 
 D|--0--0---0------------------------------------------------| 
 A|----------------------------------------------------------| 
 E|--3-------------------------------------------------------| 



Final 


 e|----------------------------------------------------------| 
 B|--3--1----------------------------------------------------| 
 G|--2-----2-----2--0----------------------------------------| 
 D|--0--------4--0-------------------------------------------| 
 A|----------------------------------------------------------| 
 E|--------------3-------------------------------------------| 
	  

Search Paypal
auto scroll beats size up size down change color hide chords drawings
tab show chords e-chords YouTube Clip e-chords hide all tabs e-chords go to top tab