Miyuki Homareda

Harvest Moon: Back To Nature

Miyuki Homareda

tabs Advanced advanced

by  EDUCASTILHO

save to print version add songbook text version e-mail correct tuner
chordsukulelecavacokeyboardtabbassdrumsharmonicaflute Guitar Pro
close

there isn't a video lesson for this song

chords

Harvest Moon: Back To Nature

	  		 
E|-----------------------------------|---3---2---0-----2---2-1-2----------| 
B|------3-------3-------3-----3-2-3--|*--3-----------3-------------3-2-3--| 
G|------0-------0-------0------------|------------------------------------| 
D|----------0---------------0--------|---------0-0---------------0--------| 
A|-----------------------------------|*------------------0----------------| 
E|--3---------------3----------------|---3--------------------------------| 
 

 
E|--2---0-------0--------------------|--0---------------------0---0---0--| 
B|--1-------3-----3---3-2-3---0---0--|------3---1---0-1---1-3-------4----| 
G|--2---------------------------3----|-----------------------------------| 
D|--0-----------------------0--------|-----------------------------------| 
A|--------0-0------------------------|--------2-2-------0----------------| 
E|------------------3----------------|--0-----------------------0--------| 
 

 
E|--5---3---2---0-2---1-0------------|--3---2---0-----2---2-1-2----------| 
B|--2---------------------3---3-2-3--|--3-----------3-------------3-2-3--| 
G|--2--------------------------------|-----------------------------------| 
D|------------------0----------------|--------0-0---------------0--------| 
A|--0-----------------------0--------|------------------0----------------| 
E|--------0-0------------------------|--3--------------------------------| 
 

 
E|--2---0-------0--------------------|--0---------------------0---0-2-3--| 
B|--1-------3-----3---3-2-3---0---0--|------3---1---0-1---1-3------------| 
G|--2---------------------------3----|-----------------------------------| 
D|--0-----------------------0--------|-----------------------------------| 
A|--------0-0------------------------|--------2-2-------0----------------| 
E|------------------3----------------|--0-----------------------0--------| 
 

 
E|--2-2---2-0-------3---------3-5-3--|--0---3-5---3---3-7-6-5-3---3-5-3--| 
B|--3-3---3-----3--------------------|-----------------------------------| 
G|--2--------------------------------|-----------------------------------| 
D|--0--------------------------------|--------------------------0--------| 
A|----------0-----------0---2--------|--3--------------------------------| 
E|------------------3----------------|----------3-------3----------------| 
 

 
E|--0---3-5---3-5-7-----------7-6-7--|--8-7-5---------5-7-6-7-12---0-2-3-| 
B|----------------------0------------|--5-----7---7-8--------------------| 
G|-----------------------------------|--5--------------------------------| 
D|--------------------------0--------|----------0------------------------| 
A|--3--------------------------------|--0--------------------------------| 
E|----------3-------3----------------|------------------3--------0-------| 
 

 
E|--5-5-7-7-8-8-5-5-10-8-7-5-----------| 
B|-----------------------------3-2-3--*| 
G|-------------------------------------| 
D|-------------------------------------| 
A|------------------------------------*| 
E|--5---7---8---5---10-8-7-5-----------| 
		  

See also:

tabs Deep Purple - Smoke On The Water (Intermediate Intro) tabs Deep Purple - Space Truckin tabs Deep Purple - Smoke On The Water (Easy Intro) tabs Ira! - Prisão das Ruas tabs Doa - Sexyest Girl tabs Deep Purple - Ted The Mechanic
e-chords

Other versions:

tabs Miyuki Homareda - Harvest Moon: Back To Nature
auto scroll beats size up size down change color hide chords drawings
tab show chords e-chords YouTube Clip e-chords hide all tabs e-chords go to top tab

share